Top Réalisateurs 2.0

Avatar Nathan56 Liste de

114 personnalités

par Nathan56

Classement des films par réalisateur,sans prise en compte des films d'animations, 5 films minimum par réalisateur. Ils sont classés selon le nombre de films visionnés. De plus les réalisateurs avec plus de 9 films sont classés dans un Top 25 selon la moyenne des films donnés.

✔ signifie que j'ai vu le film au cinéma (soit dans les meilleures conditions possibles)

Mes autres listes :
http://www.senscritique.com/liste/Grands_Acteurs_2_0/749121
https://www.senscritique.com/liste/Top_Actrices_2_0/1605223

Top 25 Réalisateurs (à partir de 9 films):
1° - Quentin Tarantino .. (8,4/10)
2° - David Fincher ........ (8,2/10)
4° - Christopher Nolan . (7,9/10)
4° - Danny Boyle ......... (7,9/10)
5° - Martin Scorsese .... (7,87/10)
6° - Steven Spielberg ... (7,52/10)
7° - Clint Eastwood ...... (7,46/10)
8° - Robert Zemeckis ... (7,46/10)
9° - Stanley Kubrick .... (7,44/10)
10° - Joel Coen ............. (7,31/10)
11° - Peter Jackson ...... (7,33/10)
12° - Hayao Miyazaki ..... (7,3/10)
13° - Brian de Palma ... (7,23/10)
14° - Ethan Coen .......... (7,17/10)
15° - Wes Anderson ...... (7,1/10)
16° - Woody Allen .......... (7/10)
17° - Paul Verhoeven ..... (7/10)
18°- Michel Gondry ........(7/10)
19° - Bryan Singer ........ (7/10)
20°- Ron Howard ......... (6,9/10)
21°- James Wan .......... (6,89/10)
22°- Oliver Stone ......... (6,78/10)
23° - Tim Burton .......... (6,76/10)
24° - Ridley Scott ......... (6,55/10)
25° - M. Night Shyamalan (6,33/10)

Trier par : Tri par défaut
  • Tri par défaut
  • Ordre alphabétique
  • Derniers ajouts
  • 1 Photo Steven Spielberg

    Steven Spielberg

    acteur, scénariste, réalisateur, producteur, créateur et auteur

    Moyenne : 7,52/10
    --------------------------------------------------------------------------------9/10-------
    1 / Jurassic Park ✔
    2 / La Liste de Schindler
    3 / Il faut sauver le soldat Ryan
    4 / Arrête-moi si tu peux
    ---------------------------------------------------------------------------------8/10-------
    5 / Ready Player One ✔
    6 / Le Monde perdu : Jurassic Park
    7 / Indiana Jones et la Dernière Croisade
    8 / Les Aventuriers de l'Arche Perdue
    9 / Minority Report
    10 / Les Aventures de Tintin : Le Secret de la Licorne ✔
    11 / Les Dents de la mer
    12 / Le Terminal
    13 / Indiana Jones et le Temple maudit
    14 / Munich
    ---------------------------------------------------------------------------------7/10-------
    15 / Duel
    16 / La Guerre des mondes
    17 / Rencontre du troisième type
    18 / E.T. l'extra-terrestre
    19 / Le Pont des Espions
    20 / L'Empire du Soleil
    21 / Pentagon Papers ✔
    22 / A.I. Intelligence Artificielle
    23 / Hook ou la revanche du capitaine Crochet
    24 / Cheval de guerre
    ---------------------------------------------------------------------------------6/10-------
    25 / Lincoln
    26 / Le BGG
    ---------------------------------------------------------------------------------5/10-------
    27 / Indiana Jones et le Royaume du câne de cristal

    http://www.senscritique.com/top/Les_meilleurs_films_de_Steven_Spielberg/686903

  • 2 Photo Ridley Scott

    Ridley Scott

    producteur, acteur, scénariste, réalisateur, créateur et auteur

    Moyenne : 6,55/10
    ----------------------------------------------------------------------------------9/10-------
    1 / Gladiator
    2 / Thelma et Louise ✔
    ----------------------------------------------------------------------------------8/10-------
    3 / La Chute du faucon noir
    4 / Alien : Le Huitième passager
    5 / Seul sur Mars ✔
    6 / Hannibal
    ----------------------------------------------------------------------------------7/10-------
    7 / Blade Runner
    8 / American Gangster
    9 / Exodus : Gods and Kings
    10 / Tout l'argent du monde
    11 / Prometheus ✔
    12 / Les Associés
    13 / Les Duellistes
    ----------------------------------------------------------------------------------6/10-------
    14 / Mensonges d'État
    15 / 1492 : Christophe Colomb
    16 / Kingdom of Heaven
    ----------------------------------------------------------------------------------5/10-------
    17 / Robin des Bois
    18 / Legend
    ----------------------------------------------------------------------------------4/10-------
    19 / Cartel
    ----------------------------------------------------------------------------------3/10-------
    20 / Alien : Covenant ✔

    http://www.senscritique.com/top/Les_meilleurs_films_de_Ridley_Scott/999350
  • 3 Photo Joel Coen

    Joel Coen

    scénariste, réalisateur, producteur, acteur et auteur

    Moyenne : 7,29/10
    ----------------------------------------------------------------------------------9/10-------
    1 / No Country for Old Men
    ----------------------------------------------------------------------------------8/10-------
    2 / The Big Lebowski
    3 / O'Brother
    4 / Fargo
    5 / Arizona Junior
    6 / True Grit
    7 / Miller's Crossing
    8 / Barton Fink
    ----------------------------------------------------------------------------------7/10-------
    9 / Sang pour sang
    10 / La Ballade de Buster Scruggs
    11 / Burn After Reading
    12 / The Barber, l'homme qui n'était pas là
    13 / Inside Llewyn Davis
    14 / Paris, je t'aime
    ----------------------------------------------------------------------------------6/10-------
    15 / Intolérable Cruauté
    16 / Ladykillers
    ----------------------------------------------------------------------------------5/10-------
    17 / Ave, César !

    http://www.senscritique.com/top/Les_meilleurs_films_des_freres_Coen/1168617
  • 4 Photo Tim Burton

    Tim Burton

    illustrateur, auteur, producteur, acteur, scénariste, réalisateur et créateur

    Moyenne : 6,76/10
    ---------------------------------------------------------------------------------8/10-------
    1 / Edward aux mains d'argent
    2 / Batman
    3 / Sweeney Todd, le diabolique barbier de Fleet Street
    4 / Big Fish
    5 / Charlie et la Chocolaterie
    ---------------------------------------------------------------------------------7/10-------
    6 / Ed Wood
    7 / Batman : Le Défi
    8 / Beetlejuice
    9 / Sleepy Hollow, la légende du cavalier sans tête
    10 / Vincent
    ---------------------------------------------------------------------------------6/10-------
    11 / La Planète des singes
    12 Les Noces funèbres
    13 / Frankeenweenie (1984)
    14 / Mars Attacks !
    ---------------------------------------------------------------------------------5/10-------
    15 / Miss Peregrine et les Enfants particuliers
    16 / Alice au pays des merveilles
    17 / Dark Shadows

    http://www.senscritique.com/top/Les_meilleurs_films_de_Tim_Burton/999336
  • 5 Photo Martin Scorsese

    Martin Scorsese

    réalisateur, acteur, producteur, scénariste, auteur, préfacier et créateur

    Moyenne : 7,87/10
    ----------------------------------------------------------------------------------9/10-------
    1 / Les Affranchis
    2 / Le Loup de Wall Street ✔
    3 / Les Infiltrés
    4 / Shutter Island
    5 / Taxi Driver
    ----------------------------------------------------------------------------------8/10-------
    6 / Raging Bull
    7 / Casino
    8 / Gangs of New York
    9 / Aviator
    10 / La Valse des Pantins
    ----------------------------------------------------------------------------------7/10-------
    11 / Les Nerfs à vif
    12 / Hugo Cabret
    13 / Silence
    ----------------------------------------------------------------------------------6/10-------
    14 / Mean Streets
    15 / Le grand rasage (court-métrage)

    https://www.senscritique.com/top/Les_meilleurs_films_de_Martin_Scorsese/672220
  • 6 Photo Woody Allen

    Woody Allen

    réalisateur, scénariste, artiste musical, créateur, acteur, auteur et producteur

    Moyenne : 7/10
    ----------------------------------------------------------------------------------9/10-------
    1 / Match Point ✔
    ----------------------------------------------------------------------------------8/10-------
    2 / Annie Hall
    3 / Zelig
    ----------------------------------------------------------------------------------7/10-------
    4 / Manhattan
    5 / Scoop
    6 / Le Rêve de Cassandre
    7 / Meurtre mystérieux à Manhattan
    8 / Hannah et ses sœurs
    9 / La Rose pourpre du Caire
    10 / Café Society
    11 / Minuit à Paris
    ----------------------------------------------------------------------------------6/10-------
    12 / Vicky Cristina Barcelona
    13 / L'Homme Irrationnel
    ----------------------------------------------------------------------------------5/10-------
    14 / Hollywood Ending

    https://www.senscritique.com/top/Les_meilleurs_films_de_Woody_Allen/1678332
  • 7 Photo Brian De Palma

    Brian De Palma

    producteur, acteur, scénariste, réalisateur et auteur

    Moyenne : 7,23/10
    ---------------------------------------------------------------------------------10/10-------
    1 / L'Impasse
    ----------------------------------------------------------------------------------9/10-------
    2 / Blow Out
    ----------------------------------------------------------------------------------8/10-------
    3 / Snake Eyes
    4 / Les Incorruptibles
    5 / Scarface
    ----------------------------------------------------------------------------------7/10-------
    6 / Body Double
    7 / Outrages
    8 / Mission : Impossible
    9 / Phantom of the Paradise
    ----------------------------------------------------------------------------------6/10-------
    10 / Pulsions
    11 / Carrie au bal du diable ✔
    12 / Le Bûcher des vanités
    ----------------------------------------------------------------------------------5/10-------
    13 / Passion

    https://www.senscritique.com/top/Les_meilleurs_films_de_Brian_de_Palma/1568767
  • 8 Photo Clint Eastwood

    Clint Eastwood

    acteur, producteur, réalisateur et artiste musical

    Moyenne : 7,46/10
    ----------------------------------------------------------------------------------9/10-------
    1 / Impitoyable
    ----------------------------------------------------------------------------------8/10-------
    2 / Gran Torino
    3 / Sur la route de Madison
    4 / Million Dollar Baby
    5 / Mystic River
    6 / Un monde parfait
    ----------------------------------------------------------------------------------7/10-------
    7 / Sully
    8 / L'Échange
    9 / Pale Rider, le cavalier solitaire
    10 / J. Edgar
    11 / Invictus
    12 / Space Cowboys
    ----------------------------------------------------------------------------------7/10-------
    13 / American Sniper

    http://www.senscritique.com/top/Les_meilleurs_films_de_Clint_Eastwood/999341
  • 9 Photo Ethan Coen

    Ethan Coen

    scénariste, producteur, réalisateur, acteur et auteur

    Moyenne : 7,15/10
    ----------------------------------------------------------------------------------9/10-------
    1 / No Country for Old Men
    ----------------------------------------------------------------------------------8/10-------
    2 / The Big Lebowski
    3 / O'Brother
    4 / True Grit
    5 / Fargo
    ----------------------------------------------------------------------------------7/10-------
    6 / La Ballade de Buster Scruggs
    7 / Burn After Reading
    8 / The Barber, l'homme qui n'était pas là
    9 / Inside Llewyn Davis
    10 / Paris, je t'aime
    ----------------------------------------------------------------------------------6/10-------
    11 / Intolérable Cruauté
    12 / Ladykillers
    ----------------------------------------------------------------------------------5/10-------
    13 / Ave, César !

    http://www.senscritique.com/top/Les_meilleurs_films_des_freres_Coen/1168617
  • 10 Photo Robert Zemeckis

    Robert Zemeckis

    réalisateur, scénariste, producteur, créateur et acteur

    Moyenne : 7,46/10
    ----------------------------------------------------------------------------------9/10-------
    1 / Forrest Gump
    2 / Retour vers le futur 2 ✔
    3 / Retour vers le futur ✔
    ----------------------------------------------------------------------------------8/10-------
    4 / Qui veut la peau de Roger Rabbit
    5 / Seul au monde
    6 / Retour vers le futur 3 ✔
    ----------------------------------------------------------------------------------7/10-------
    7 / Alliés
    8 / The Walk - Rêver plus haut
    9 / Le Drôle de Noël de Scrooge
    10 / Flight
    ----------------------------------------------------------------------------------6/10-------
    11 / Contact
    12 / Le Pôle Express
    13 / À la poursuite du Diamant Vert

    http://www.senscritique.com/top/Les_meilleurs_films_de_Robert_Zemeckis/1125391
  • 11 Photo Michael Bay

    Michael Bay

    producteur, réalisateur, acteur et auteur

    Moyenne : 5,92/10
    ----------------------------------------------------------------------------------7/10-------
    1 / No Pain No Gain ✔
    2 / Pearl Harbor
    3 / The Island
    4 / 13 Hours
    ----------------------------------------------------------------------------------6/10-------
    5 / Transformers
    6 / Transformers 3 : La Face cachée de la Lune
    7 / Bad Boys II
    8 / Rock
    9 / Armageddon
    ----------------------------------------------------------------------------------5/10-------
    10 / Transformers : L'Âge de l'extinction ✔
    11 / Transformers 2 : La Revanche
    ----------------------------------------------------------------------------------3/10-------
    12 / Transformers : The Last Knight

    http://www.senscritique.com/top/Les_meilleurs_films_de_Michael_Bay/999313
  • 12 Photo Peter Jackson

    Peter Jackson

    réalisateur, producteur, scénariste, acteur et auteur

    Moyenne : 7,33/10
    ----------------------------------------------------------------------------------9/10-------
    1 / Le Seigneur des Anneaux : Le Retour du roi ✔
    2 /Le Seigneur des Anneaux : Les Deux Tours
    3 / Le Seigneur des Anneaux : La Communauté de l'anneau ✔
    4 / King Kong
    ----------------------------------------------------------------------------------8/10-------
    5 / Le Hobbit : Un Voyage inattendu ✔
    6 / Le Hobbit : La Désolation de Smaug ✔
    ----------------------------------------------------------------------------------7/10-------
    7 / Le Hobbit : La Bataille des cinq armées ✔
    8 / Lovely Bones
    9 / Braindead
    ----------------------------------------------------------------------------------6/10-------
    10 / Créatures Célestes
    11 / Fantômes contre Fantômes
    ----------------------------------------------------------------------------------3/10-------
    12 / Bad Taste

    http://www.senscritique.com/top/Les_meilleurs_films_de_Peter_Jackson/999634
  • 13 Photo Luc Besson

    Luc Besson

    producteur, scénariste, réalisateur, acteur, auteur, direction, préfacier et créateur

    Moyenne : 6,27/10
    ----------------------------------------------------------------------------------9/10-------
    1 / Léon
    ----------------------------------------------------------------------------------8/10-------
    2 / Le Cinquième Élément
    ----------------------------------------------------------------------------------7/10-------
    3 / Valérian et la Cité des Mille Planètes ✔
    4 / Le Grand Bleu
    5 / Nikita
    6 / Arthur et les Minimoys ✔
    ----------------------------------------------------------------------------------6/10-------
    7 / Malavita
    ----------------------------------------------------------------------------------5/10-------
    8 / Arthur et la Vengeance de Maltazard ✔
    9 / Lucy
    ----------------------------------------------------------------------------------4/10-------
    10 / Les Aventures extraordinaires d'Adèle Blanc-Sec
    11 / Arthur 3 : La Guerre des deux mondes

    https://www.senscritique.com/top/Les_meilleurs_films_de_Luc_Besson/1677926
  • 14 Photo Robert Rodriguez

    Robert Rodriguez

    auteur, producteur, distributeur, acteur, scénariste, réalisateur, artiste musical et créateur

    Moyenne : 6,18/10
    ----------------------------------------------------------------------------------8/10-------
    1 / Sin City
    ----------------------------------------------------------------------------------7/10-------
    2 / Alita : Battle Angel ✔
    3 / Sin City : J'ai tué pour elle
    4 / Une Nuit en Enfer
    5 / Planète Terreur
    6 / Machete
    ----------------------------------------------------------------------------------6/10-------
    7 / Desperado
    8 / Machete Kills
    ----------------------------------------------------------------------------------5/10-------
    9 / Desperado 2 : Il était une fois au Mexique
    10 / The Faculty
    ----------------------------------------------------------------------------------3/10-------
    11 / Spy Kids

    https://www.senscritique.com/top/Les_meilleurs_films_de_Robert_Rodriguez/2343400

  • 15 Photo Bryan Singer

    Bryan Singer

    producteur, scénariste, acteur, illustrateur, auteur et réalisateur

    Moyenne : 7/10
    ----------------------------------------------------------------------------------9/10-------
    1 / Usual Suspects
    ----------------------------------------------------------------------------------8/10-------
    2 / Bohemian Rhapsody ✔
    3 / X-Men : Days of Future Past ✔
    ----------------------------------------------------------------------------------7/10-------
    4 / X-Men
    5 / Walkyrie
    6 / X-Men 2
    7 / X-Men : Apocalypse ✔
    ----------------------------------------------------------------------------------6/10-------
    8 / Un éléve doué
    9 / Superman Returns
    ----------------------------------------------------------------------------------5/10-------
    10 / Jack le chasseur de géants

    https://www.senscritique.com/top/Les_meilleurs_films_de_Bryan_Singer/2254870
  • 16 Photo Christopher Nolan

    Christopher Nolan

    réalisateur, scénariste, producteur, acteur et auteur

    Moyenne : 7,9/10
    --------------------------------------------------------------------------------10/10-------
    1 / Interstellar ✔
    ----------------------------------------------------------------------------------9/10-------
    2 / The Dark Knight, le chevalier noir
    3 / Le Prestige
    ----------------------------------------------------------------------------------8/10-------
    5 / Inception
    4 / Dunkerque ✔
    6 / The Dark Knight Rises ✔
    7 / Batman Begins
    8 / Memento
    ----------------------------------------------------------------------------------6/10-------
    9 / Insomnia
    ----------------------------------------------------------------------------------5/10-------
    10/ Doodlebug

    https://www.senscritique.com/top/Les_meilleurs_films_de_Christopher_Nolan/682133

  • 17 Photo Danny Boyle

    Danny Boyle

    réalisateur, producteur, créateur, acteur et scénariste

    Moyenne : 7,9/10
    ----------------------------------------------------------------------------------10/10------
    1 / Slumdog Millionaire
    ----------------------------------------------------------------------------------9/10-------
    2 / 28 jours plus tard
    3 / Trainspotting
    ----------------------------------------------------------------------------------8/10-------
    4 / La Plage
    5 / Sunshine
    ----------------------------------------------------------------------------------7/10-------
    6 / T2 : Trainspotting
    7 / Steve Jobs
    8 / 127 Heures
    9 / Trance
    10 / Une vie moins ordinaire

    https://www.senscritique.com/top/Les_meilleurs_films_de_Danny_Boyle/1738002
  • 18 Photo David Fincher

    David Fincher

    auteur, producteur, créateur, acteur, développeur et réalisateur

    Moyenne : 8,2/10
    --------------------------------------------------------------------------------10/10-------
    1 / Seven
    2 / Fight Club
    ----------------------------------------------------------------------------------9/10-------
    3 / Gone Girl ✔
    4 / L'Étrange Histoire de Benjamin Button ✔
    ----------------------------------------------------------------------------------8/10-------
    5 / Zodiac
    6 / Millénium : Les Hommes qui n'aimaient pas les femmes
    7 / The Social Network
    ----------------------------------------------------------------------------------7/10-------
    8 / Panic Room
    9 / The Game
    ----------------------------------------------------------------------------------6/10-------
    10 / Alien 3

    http://www.senscritique.com/top/Les_meilleurs_films_de_David_Fincher/999344
  • 19 Photo Hayao Miyazaki

    Hayao Miyazaki

    scénariste, réalisateur, producteur, acteur, auteur, dessinateur, créateur et illustrateur

    Moyenne : 7,3/10
    ----------------------------------------------------------------------------------8/10-------
    1 / Princesse Mononoké
    2 / Le Château ambulant
    3 / Le Château dans le ciel ✔
    4 / Le Voyage de Chihiro
    5 / Nausicaä de la vallée du vent
    ----------------------------------------------------------------------------------7/10-------
    6 / Porco Rosso
    7 / Mon voisin Totoro
    8 / Kiki la petite sorcière
    ----------------------------------------------------------------------------------6/10-------
    9 / Ponyo sur la Falaise
    10 / Le vent se lève

    https://www.senscritique.com/top/Les_meilleurs_films_de_Miyazaki/2010814
  • 20 Photo Michel Gondry

    Michel Gondry

    auteur, dessinateur, producteur, créateur, acteur, scénariste, réalisateur et artiste musical

    Moyenne : 7/10
    ---------------------------------------------------------------------------------10/10-------
    1 / Eternal Sunshine of the Spotless Mind
    ----------------------------------------------------------------------------------8/10-------
    2 / The Work of Director Michel Gondry
    3 / La Science des rêves
    ----------------------------------------------------------------------------------7/10-------
    4 / Soyez sympas, rembobinez
    5 / La Lettre (court-métrage)
    ----------------------------------------------------------------------------------6/10-------
    6 / Microbe & Gasoil ✔
    7 / The We and The I
    8 / The Green Hornet ✔
    9 / Détour
    10 / Pecan Pie (court-métrage)

    https://www.senscritique.com/top/Les_meilleurs_films_de_Michel_Gondry/1844946
  • 21 Photo Quentin Tarantino

    Quentin Tarantino

    acteur, producteur, auteur, scénariste, réalisateur et artiste musical

    Moyenne : 8,4/10
    ----------------------------------------------------------------------------------9/10-------
    1 / Django Unchained
    2 / Les 8 Salopards ✔
    3 / Kill Bill : Volume 1
    4 / Kill Bill : Volume 2
    ----------------------------------------------------------------------------------8/10-------
    5 / Pulp Fiction
    6 / Inglourious Basterds
    7 / Sin City
    8 / Boulevard de la mort
    9 / Reservoir Dogs
    10 / Jackie Brown

    http://www.senscritique.com/top/Les_meilleurs_films_de_Quentin_Tarantino/1158127
  • 22 Photo Ron Howard

    Ron Howard

    créateur, acteur, producteur, auteur, scénariste et réalisateur

    Moyenne : 6,9/10
    ----------------------------------------------------------------------------------9/10-------
    1 / Rush
    ----------------------------------------------------------------------------------8/10-------
    2 / De l'ombre à la lumière
    3 / Un homme d'exception
    4 / Apollo 13
    ----------------------------------------------------------------------------------7/10-------
    5 / Solo : A Star Wars Story
    ----------------------------------------------------------------------------------6/10-------
    6 / Willow
    7 / Au coeur de l'océan
    8 / Da Vinci Code
    9 / Inferno
    ----------------------------------------------------------------------------------5/10-------
    10 / Anges & Démons

    https://www.senscritique.com/top/Les_meilleurs_films_de_Ron_Howard/2214308
  • 23 Photo Wes Anderson

    Wes Anderson

    réalisateur, scénariste, producteur, acteur, préfacier et auteur

    Moyenne : 7,1/10
    ----------------------------------------------------------------------------------8/10-------
    1 / Fantastic Mr. Fox
    2 / Moonrise Kingdom
    3 / L'Île aux Chiens
    ----------------------------------------------------------------------------------7/10-------
    4 / The Grand Budapest Hotel
    5 / Come Together (court-métrage)
    6 / Hôtel Chevalier (court-métrage)
    7 / La Famille Tenenbaum
    8 / La Vie aquatique
    ----------------------------------------------------------------------------------6/10-------
    9 / À bord du Darjeeling Limited
    10 / Castello Cavalcanti (court-métrage)

    https://www.senscritique.com/top/Les_meilleurs_films_de_Wes_Anderson/2087665
  • 24 Photo James Wan

    James Wan

    producteur, acteur, scénariste, réalisateur et auteur

    Moyenne : 6,89/10
    ----------------------------------------------------------------------------------8/10-------
    1 / Conjuring : Les Dossiers Warren
    ----------------------------------------------------------------------------------7/10-------
    2 / Saw
    ----------------------------------------------------------------------------------6/10-------
    3 / Aquaman
    3 / Fast and Furious 7
    4 / Aquaman
    5 / Conjuring 2 : Le Cas Enfield
    6 / Death Sentence
    7 / Insidious
    8 / Saw (court-métrage)
    ----------------------------------------------------------------------------------5/10-------
    9 / Insidious : Chapitre 2
  • 25 Photo M. Night Shyamalan

    M. Night Shyamalan

    réalisateur, scénariste, producteur, créateur, acteur et auteur

    Moyenne ; 6,33/10
    ----------------------------------------------------------------------------------8/10-------
    1 / Incassable
    ----------------------------------------------------------------------------------7/10-------
    2 / Sixième Sens ✔
    3 / Glass ✔
    ----------------------------------------------------------------------------------6/10-------
    4 / Split ✔
    5 / Signes
    6 / Le Village
    7 / The Visit
    8 / Phénomènes
    ----------------------------------------------------------------------------------5/10-------
    9 / Le Dernier Maître de l'air


  • 26 Photo Oliver Stone

    Oliver Stone

    réalisateur, artiste musical, producteur, scénariste, créateur, acteur et auteur

    Moyenne : 6,78/10
    ----------------------------------------------------------------------------------8/10-------
    1 / Platoon
    ----------------------------------------------------------------------------------7/10-------
    2 / Snowden
    3 / Savages
    4 / JFK
    5 / Né un 4 Juillet
    6 / L'Enfer du Dimanche
    7 / Alexandre
    ----------------------------------------------------------------------------------6/10-------
    8 / Tueurs Nés
    ----------------------------------------------------------------------------------5/10-------
    9 / World Trade Center
  • 27 Photo Paul Verhoeven

    Paul Verhoeven

    réalisateur, acteur, scénariste, producteur, auteur et créateur

    Moyenne : 7/10
    ----------------------------------------------------------------------------------8/10-------
    1 / Black Book
    2 / Starship Troopers
    3 / Robocop
    ----------------------------------------------------------------------------------7/10-------
    4 / Total Recall ✔
    5 / Soldier of Orange
    6 / Hollow Man, l'homme sans ombre
    ----------------------------------------------------------------------------------6/10-------
    7 / Basic Instinct
    8 / Showgirls
    9 / Elle
  • 28 Photo Stanley Kubrick

    Stanley Kubrick

    réalisateur, scénariste, producteur et acteur

    Moyenne : 7,44/10
    ----------------------------------------------------------------------------------9/10-------
    1 / Orange mécanique
    ----------------------------------------------------------------------------------8/10-------
    2 / Full Metal Jacket
    3 / Les Sentiers de la gloire
    ----------------------------------------------------------------------------------7/10-------
    4 / 2001 : L'Odyssée de l'espace ✔
    5 / Lolita
    6 / Spartacus
    7 / Barry Lyndon
    8 / Shining
    9 / Eyes Wide Shut
  • 29 Photo Park Chan-wook

    Park Chan-wook

    réalisateur, scénariste, producteur, acteur et créateur

    1 / Old Boy
    2 / Mademoiselle ✔
    3 / JSA (Joint Security Area)
    4 / Stoker
    5 / Le Jugement (court-métrage)
    6 / Sympathy for Mr. Vengeance
    7 / Je suis un cyborg
    8 / Lady Vengeance
  • 30 Photo Paul Thomas Anderson

    Paul Thomas Anderson

    réalisateur, scénariste, producteur et acteur

    1 / Boogie Nights
    2 / There Will Be Blood
    3 / Magnolia
    4/ Phantom Thread
    5 / The Master
    6 / Double Mise
    7 / Inherent Vice
    8 / Punch-Drunk Love, Ivre d'amour