Top Acteurs 2.0

Avatar Nathan56 Liste de

1082 personnalités

par Nathan56

Classement des films par acteur,sans prise en compte des films d'animations, 5 films minimum par acteur. Ils sont classés selon le nombre de films visionnés. De plus les acteurs avec plus de 10 films sont classés dans un Top 10 selon la moyenne des films visionnés.

✔ signifie que j'ai vu le film au cinéma (soit dans les meilleures conditions possibles)

Mes autres listes :
http://www.senscritique.com/liste/Grands_Realisateurs_2_0/774965
https://www.senscritique.com/liste/Top_Actrices_2_0/1605223

Top 15 Acteurs (à partir de 10 films):
1° - Leonardo DiCaprio ...... (7,91/10)
2° - Andy Serkis ................ (7,86/10)
3° - Rafe Spall ................... (7,85/10)
4° - Michael Madsen .......... (7,8/10)
5° - Sean Penn ................... (7,8/10)
6° - Brian Cox .................... (7,74/10)
7° - Viggo Mortensen ......... (7,64/10)
8° - Clint Eastwood ............ (7,64/10)
9° - Rupert Grint ................ (7,64/10)
10° - Tom Felton ................... (7,6/10)
11° - Pete Postlethwaite ....... (7,6/10)
12° - Al Pacino .................... (7,56/10)
13° - Orlando Bloom ............. (7,53/10)
14° - Frank Oz ..................... (7,5/10)
15° - Ian Holm ....................... (7,47/10)

Flop 15 Acteurs
1° - Ramzy Bédia ................. (3,54/10)
2° - Eric Judor......................... (3,82/10)
3° - José Garcia .................. (4,55/10)
4° - Eriq Ebouaney ............... (5/10)
5° - Kad Merad .................... (5,1/10)
6° - Christian Clavier ........... (5,08/10)
7° - Etienne Chicot ............. (5,1/10)
8° - Jean-Paul Rouve ........ (5,14/10)
9° - Lambert Wilson .......... (5,2/10)
10 ° - Arsène Mosca ............. (5,27/10)
11° - Seann William Scott ...... (5,29/10)
12° - Luke Evans ........................ (5,33/10)
13° - Bill Pullman .................... (5,36/10)
14° - Omar Sy ...................... (5,36/10)
15° - Francois Damiens ......... (5,43/10)

Trier par : Tri par défaut
  • Tri par défaut
  • Derniers ajouts
  • Ordre alphabétique
Croissant
  • Croissant
  • Décroissant
  • 1 Photo Samuel L. Jackson

    Samuel L. Jackson

    acteur, producteur, artiste musical et préfacier

    Moyenne : 6,85/10
    ----------------------------------------------------------------------------------9/10-------
    1 / Jurassic Park ✔
    2 / Star Wars Episode III : La Revanche des Siths
    3 / Kingsman : Services secrets ✔
    4 / Django Unchained
    5 / Les 8 Salopards ✔
    6 / Kill Bill : Volume 1
    7 / Kill Bill : Volume 2
    ----------------------------------------------------------------------------------8/10-------
    8 / Avengers : Endgame ✔
    9 / Une Journée en Enfer
    10 / Incassable ✔
    11 / Pulp Fiction
    12 / Star Wars Episode I : La Menace Fantôme
    13 / Avengers : Infinity War ✔
    14 / Star Wars Episode II : L'Attaque des Clones
    15 /True Romance
    16 / Do The Right Thing
    ----------------------------------------------------------------------------------7/10-------
    17 /Jackie Brown
    18 / Glass ✔
    19 / Iron Man
    20 / Avengers : L'Ère d'Ultron ✔
    21 / Avengers ✔
    22 / Spider-Man : Far From Home ✔
    23 / Captain America : Le Soldat de l'Hiver ✔
    24 / Black Snake Moan
    ----------------------------------------------------------------------------------6/10-------
    25 / RoboCop
    26 / Double Mise
    27 / Kong : Skull Island ✔
    28 / Captain Marvel ✔
    29 / Chambre 1408
    30 / Jumper
    31 / Captain America : First Avenger ✔
    32 / Un Prince à New-York
    ----------------------------------------------------------------------------------5/10-------
    33 / Thor ✔
    34 / Iron Man 2
    35 / Miss Peregrine et les Enfants particuliers
    36 / Tarzan
    37 / Des Serpents dans l'Avion
    38 / Oldboy (US)
    39 / Very Bad Cops
    ----------------------------------------------------------------------------------4/10-------
    40 / xXx
    ----------------------------------------------------------------------------------3/10-------
    41 / xXx : The Next Level

    http://www.senscritique.com/top/Les_meilleurs_films_avec_Samuel_L_Jackson/999573
  • 2 Photo Brad Pitt

    Brad Pitt

    acteur, producteur, postface et artiste musical

    Moyenne : 7,36/10
    --------------------------------------------------------------------------------10/10-------
    1 / Seven
    ----------------------------------------------------------------------------------9/10-------
    2 / Fight Club
    4 / Thelma et Louise ✔
    ----------------------------------------------------------------------------------8/10-------
    5 / Entretien avec un Vampire
    3 / L'Etrange Histoire de Benjamin Button ✔
    6 / Inglorious Basterds
    7 / Ad Astra ✔
    8 / Once Upon a Time in... Hollywood ✔
    9 / L'Armée des 12 Singes
    10 / Snatch
    11 / L'Assassinat de Jesse James par le lâche Robert Ford
    12 / The Big Short : Le Casse du siècle
    13 / Sleepers
    14 / 12 Years a Slave
    15 / Troie
    16 / Fury
    17 / True Romance
    18 / Babel
    ----------------------------------------------------------------------------------7/10-------
    19 / Dans la Peau de John Malkovich
    20 / World War Z ✔
    21 / Ocean's Twelve
    22 / Ocean's Eleven
    23 / Alliés
    24 / Le Stratège
    25 / Burn After Reading
    26 / Et au Milieu coule une Rivière
    27 / Confessions d'un homme dangereux (caméo)
    28 / Légendes d'Automne
    29 / Sept Ans au Tibet
    ----------------------------------------------------------------------------------6/10-------
    30 / Rencontre avec Joe Black
    31 / Ocean's 13
    32 / Deadpool 2 (caméo)
    33 / Mr. undefinedamp;amp; Mrs Smith
    34 / Spy game, jeu d'espions
    35 / Ennemis Rapprochés
    ----------------------------------------------------------------------------------4/10-------
    36 / Cartel

    http://www.senscritique.com/top/Les_meilleurs_films_avec_Brad_Pitt/999644
  • 3 Photo Robert De Niro

    Robert De Niro

    acteur, producteur, réalisateur et artiste musical

    Moyenne : 7,17/10
    ---------------------------------------------------------------------------------10/10-------
    1 / Voyage au bout de l'enfer ✔
    ----------------------------------------------------------------------------------9/10-------
    2 / Les Affranchis
    3 / Il était une fois en Amérique
    4 / Casino
    ----------------------------------------------------------------------------------8/10-------
    5 / Heat
    6 / Taxi Driver
    7 / Joker ✔
    8 / Brazil
    9 / Sleepers
    10 / Le Parrain : 2e Partie
    11 / Angel Heart
    12 / Raging Bull
    13 / Les Incorruptibles
    14 / La Valse des Pantins
    ----------------------------------------------------------------------------------7/10-------
    15 / The Irishman
    16 / Jackie Brown
    17 / Les Nerfs à vif
    18 / Copland
    19 / 1900
    20 / Happiness Therapy
    21 / Mon beau-père et moi
    22 / Mission
    23 / Machete
    ----------------------------------------------------------------------------------6/10-------
    24 / Limitless
    25 / Hands of Stone
    26 / Public Enemies
    27 / Frankenstein
    28 / Raisons d'état
    29 / Midnight Run
    30 / Mon beau-père, mes parents et moi
    31 / American Bluff ✔
    32 / Mon beau-père et nous
    33 / Mean Streets
    34 / Joy ✔
    35 / Malavita
    ----------------------------------------------------------------------------------5/10-------
    36 / Killer Elite

    http://www.senscritique.com/top/Les_meilleurs_films_avec_Robert_de_Niro/999666
  • 4 Photo Bruce Willis

    Bruce Willis

    acteur, producteur, scénariste et artiste musical

    Moyenne : 6,55/10
    ----------------------------------------------------------------------------------9/10-------
    1 / Piège de Cristal
    ----------------------------------------------------------------------------------8/10-------
    2 / L'Armée des 12 Singes
    3 / Une Journée en Enfer
    4 / Incassable ✔
    5 / Pulp Fiction
    6 / Le Cinquième Elément
    7 / Moonrise Kingdom
    8 / La Mort vous va si bien
    ----------------------------------------------------------------------------------7/10-------
    9 / Sixième Sens
    10 / Brooklyn Affairs ✔
    11 / Looper
    12 / Ocean's Twelve
    13 / Sin City
    14 / Sin City : J'ai Tué pour Elle
    15 / Groom Service
    16 / Le Dernier Samaritain
    17 / Glass ✔
    18 / Slevin
    19 / Planète Terreur
    20 / I'm Still Here
    -----------------------------------------------------------------------------------6/10-------
    21 / Split (caméo) ✔
    22 / 58 Minutes pour Vivre
    23 / Le Bûcher des vanités
    24 / Mon Voisin le Tueur
    25 / 16 Blocs
    26 / Les Larmes du Soleil
    27 / Armaggedon
    ----------------------------------------------------------------------------------5/10-------
    28 / Red
    29 / Clones
    30 / Mon Voisin le Tueur 2
    31 / Die Hard 4 : Retour en Enfer
    ----------------------------------------------------------------------------------4/10-------
    32 / Die Hard : Belle Journée pour Mourir
    33 / Top Cops

    http://www.senscritique.com/top/Les_meilleurs_films_avec_Bruce_Willis/999639
  • 5 Photo Matt Damon

    Matt Damon

    acteur, producteur, scénariste et créateur

    Moyenne : 6,69/10
    ----------------------------------------------------------------------------------10/10------
    1 / Interstellar ✔
    ----------------------------------------------------------------------------------9/10-------
    2 / Les Infiltrés
    3 / Il faut sauver le soldat Ryan
    ----------------------------------------------------------------------------------8/10-------
    4 / Will Hunting
    5 / La Mémoire dans la peau
    6 / Le Mans 66 ✔
    7 / Seul sur Mars ✔
    8 / La Mort dans la peau
    9 / La Vengeance dans la peau
    10 / True Grit
    ----------------------------------------------------------------------------------7/10-------
    11 / Le Talentueux Mr. Ripley
    12 / Ocean's Twelve
    13 / Ocean's Eleven
    14 / Confessions d'un homme dangereux (caméo)
    15 / Thor : Ragnarok (caméo)
    16 / Les Joueurs
    17 / Invictus
    ----------------------------------------------------------------------------------6/10-------
    18 / Ocean's 13
    19 / Deadpool 2 (caméo)
    20 / Raisons d'état
    21 / Gerry
    22 / Bienvenue à Suburbicon
    23 / Green Zone
    24 / Downsizing
    25 / Deux en un
    ----------------------------------------------------------------------------------5/10-------
    26 / La Grande Muraille
    27 / Elysium
    28 / Jason Bourne
    29 / Sex Trip
    30 / Contagion
    ----------------------------------------------------------------------------------4/10-------
    31 / L'Agence
    32 / Monuments Men

    http://www.senscritique.com/top/Les_meilleurs_films_avec_Matt_Damon/999483
  • 6 Photo Johnny Depp

    Johnny Depp

    acteur, producteur, réalisateur, scénariste, auteur et artiste musical

    Moyenne : 6,55/10
    ----------------------------------------------------------------------------------8/10-------
    1 / Donnie Brasco
    2 / Platoon
    3 / Edward aux mains d'argent
    4 / Pirates des Caraïbes : Le Secret du coffre maudit
    5 / Pirates des Caraïbes : La Malédiction du Black Pearl
    ----------------------------------------------------------------------------------7/10-------
    6 / Sweeney Todd, le diabolique barbier de Fleet Street
    7 / Ed Wood
    8 / Charlie et la Chocolaterie
    9 / 21 Jump Street (caméo)
    10 / Les Animaux fantastiques ✔
    11 / Blow
    12 / Sleepy Hollow, la légende du cavalier sans tête
    13 / Las Vegas Parano
    14 / Gilbert Grape
    15 / Les Griffes de la nuit
    16 / Pirates des Caraïbes : Jusqu'au bout du monde
    ----------------------------------------------------------------------------------6/10-------
    17 / Public Enemies
    18 / Lone Ranger : Naissance d'un héros
    19 / Les Animaux fantastiques : Les Crimes de Grindelwald ✔
    20 / Pirates des Caraïbes : La Vengeance de Salazar ✔
    21 / Pirates des Caraïbes : La Fontaine de Jouvence ✔
    22 / Neverland
    23 / L'Imaginarium du Docteur Parnassus
    24 / Le Crime de l'Orient-Express
    25 / Chocolat
    26 / From Hell
    27 / Alice de l'autre côté du miroir ✔
    ----------------------------------------------------------------------------------5/10-------
    28 / Desperado 2 : Il était une fois au Mexique
    29 / La Fin de Freddy : L'Ultime Cauchemar (caméo)
    30 / Alice au pays des merveilles
    31 / Dark Shadows

    http://www.senscritique.com/top/Les_meilleurs_films_avec_Johnny_Depp/999621
  • 7 Photo Liam Neeson

    Liam Neeson

    acteur, réalisateur et artiste musical

    Moyenne : 6,29/10
    ----------------------------------------------------------------------------------9/10-------
    1 / La Liste de Schindler
    ----------------------------------------------------------------------------------8/10-------
    2 / Batman Begins
    3 / The Dark Knight Rises ✔
    4 / Gangs of New York
    5 / Star Wars : Épisode I - La Menace fantôme
    6 / Excalibur ✔
    7 / Quelques minutes après minuit (voix)
    ----------------------------------------------------------------------------------7/10-------
    8 / Taken
    9 / Le Monde de Narnia : Chapitre 1 (voix)
    10 / Mission
    11 / Silence
    12 / La Ballade de Buster Scruggs
    13 / Le Territoire des Loups
    14 / Légendes Vivantes (caméo)
    ----------------------------------------------------------------------------------6/10-------
    15 / Les Veuves
    16 / Darkman
    17 / Love Actually
    18 / Ted 2 (caméo)
    19 / Non-Stop
    20 / The Passenger
    21 / Albert à l'Ouest
    22 / Kindgom of Heaven
    ----------------------------------------------------------------------------------5/10-------
    23 / Le Monde de Narnia : Chapitre 2 (voix)
    24 / Le Monde de Narnia : Chapitre 3 (voix) ✔
    25 / Sans Identité
    26 / Men in Black : International
    27 / Le Choc des Titans
    28 / La Colère des Titans ✔
    29 / L'Agence tous risques
    ----------------------------------------------------------------------------------4/10-------
    30 / Taken 2
    ----------------------------------------------------------------------------------3/10-------
    31 / Taken 3

    http://www.senscritique.com/top/Les_meilleurs_films_avec_Liam_Neeson/999420
  • 8 Photo Nicolas Cage

    Nicolas Cage

    acteur, producteur, réalisateur et artiste musical

    Moyenne : 6,03/10
    ----------------------------------------------------------------------------------8/10-------
    1 / Lord of War
    2 / Arizona Junior
    3 / Snake Eyes
    4 / Volte/face
    ----------------------------------------------------------------------------------7/10-------
    5 / Birdy
    6 / Leaving Las Vegas
    7 / 8 mm
    8 / Les Associés
    9 / Kick-Ass
    10 / Mandy
    11 / Snowden
    12 / Windtalkers, les messagers du vent
    13 / Adaptation.
    ----------------------------------------------------------------------------------6/10-------
    14 / Cotton Club
    15 / Benjamin Gates et le Trésor des Templiers
    16 / Benjamin Gates et le Livre des secrets
    17 / Sailor et Lula
    18 / Les Ailes de l'enfer
    19 / Rock
    20 / Family Man
    21 / Peggy Sue s'est mariée
    22 / À tombeau ouvert
    ----------------------------------------------------------------------------------5/10-------
    23 / 60 Secondes Chrono
    24 / The Weather Man
    25 / World Trade Center
    ----------------------------------------------------------------------------------4/10-------
    26 / Ghost Rider
    27 / L'Apprenti Sorcier
    28 / Bangkok Dangerous
    ----------------------------------------------------------------------------------3/10-------
    29 / Prédictions
    ----------------------------------------------------------------------------------2/10-------
    30 / Ghost Rider : L'Esprit de vengeance

    http://www.senscritique.com/top/Les_meilleurs_films_avec_Nicolas_Cage/999665
  • 9 Photo Willem Dafoe

    Willem Dafoe

    acteur, scénariste, producteur et artiste musical

    Moyenne : 6,37/10
    --------------------------------------------------------------------------------8/10-------
    1 / Platoon
    2 / Spider-Man
    3 / Inside Man, l'homme de l'intérieur
    4 / Aviator
    5 / Mississippi Burning
    --------------------------------------------------------------------------------7/10-------
    6 / The Grand Budapest Hotel
    7 / Le Patient anglais
    8 / Spider-Man 2
    9 / Spider-Man 3
    10 / American Psycho
    11 / Nymphomaniac : Volume 2
    12 / Les Brasiers de la Colère
    13 / La Vie aquatique
    14 / The Lighthouse
    15 / Brooklyn Affairs ✔
    16 / Togo
    17 / The Florida Project
    --------------------------------------------------------------------------------6/10-------
    18 / Paris, je t'aime
    19 / eXistenZ
    20 / Zack Snyder's Justice League
    21 / Sailor et Lula
    22 / Le Crime de l'Orient-Express
    23 / Le Chasseur
    --------------------------------------------------------------------------------5/10-------
    24 / La Grande Muraille
    25 / Aquaman
    26 / Desperado 2 : Il était une fois au Mexique
    27 / John Carter (voix)
    28 / John Wick
    --------------------------------------------------------------------------------3/10-------
    29 / Speed 2 : Cap sur le danger
    30 / XXX 2 : The Next Level

    http://www.senscritique.com/top/Les_meilleurs_films_avec_Willem_Dafoe/999046
  • 10 Photo Gérard Depardieu

    Gérard Depardieu

    acteur, producteur, réalisateur, scénariste, auteur et artiste musical

    Moyenne : 6,26/10
    ----------------------------------------------------------------------------------8/10-------
    1 / Astérix et Obélix : Mission Cléopâtre ✔
    2 / Cyrano de Bergerac
    3 / Jean de Florette
    4 / Les Valseuses
    5 / Mesrine : 1ère Partie - L'Instinct de mort
    6 / L'Odysée de Pi
    7 / Hamlet
    ----------------------------------------------------------------------------------7/10-------
    8 / La Môme
    9 / Buffet Froid
    10 / 1900
    11 / À l'origine
    12 / Paris, je t'aime
    13 / L'Homme au masque de fer
    ----------------------------------------------------------------------------------6/10-------
    14 / Le Dernier Métro
    15 / 1492 : Christophe Colomb
    16 / Préparez vos mouchoirs
    17 / Bon Voyage
    18 / Astérix et Obélix contre César
    19 / Le Choix des armes
    20 / RRRrrrr !!!
    21 / Inspecteur la Bavure
    22 / Tais-toi !
    ----------------------------------------------------------------------------------5/10-------
    23 / Babylon A.D.
    24 / Michou d'Auber
    25 / Les Enfants de Timpelbach
    26 / Astérix aux jeux olympiques ✔
    ----------------------------------------------------------------------------------2/10-------
    27 / Astérix et Obélix : Au service de sa Majesté
    28 / Alad'2

    http://www.senscritique.com/top/Les_meilleurs_films_avec_Gerard_Depardieu/999382
  • 11 Photo Tom Cruise

    Tom Cruise

    acteur, producteur, scénariste et artiste musical

    Moyenne : 7/10
    ----------------------------------------------------------------------------------9/10-------
    1 / Entretien avec un vampire
    2 / Mission : Impossible - Fallout ✔
    3 / Mission : Impossible - Rogue Nation ✔
    4 / Magnolia
    5 / Rain Man
    6 / La Guerre des mondes
    7 / Collateral
    8 / Minority Report
    9 / Barry Seal : American Traffic
    ----------------------------------------------------------------------------------7/10-------
    10 / Edge of Tomorrow
    11 / Eyes Wide Shut
    12 / Tonnerre sous les tropiques
    13 / Mission : Impossible
    14 / Walkyrie
    15 / Le Dernier Samouraï
    16 / Mission : Impossible - Protocole fantôme
    17 / Mission : Impossible III
    18 / Vanilla Sky
    19 / Outsiders
    20 / Jerry Maguire
    21 / Né un 4 Juillet
    ----------------------------------------------------------------------------------6/10-------
    22 / La Firme
    23 / Top Gun
    24 / Mission : Impossible 2
    25 / Jack Reacher
    26 / Oblivion
    ----------------------------------------------------------------------------------5/10-------
    27 / Legend
    28 / La Momie

    http://www.senscritique.com/top/Les_meilleurs_films_avec_Tom_Cruise/999026
  • 12 Photo Woody Harrelson

    Woody Harrelson

    acteur, réalisateur, scénariste et producteur

    Moyenne : 6,46/10
    ---------------------------------------------------------------------------------9/10------
    1 / True Detective : Saison 1 (Série)
    2 / No Country for Old Men
    ---------------------------------------------------------------------------------8/10------
    3 / 3 Billboards, les panneaux de la vengeance ✔
    4 / La Ligne rouge
    5 / La Planète des Singes : Suprématie
    6 / Larry Flynt
    ---------------------------------------------------------------------------------7/10------
    7 / Bienvenue à Zombieland
    8 / Hunger Games : L'Embrasement ✔
    9 / 2012
    10 / Sept Vies
    11 / Les Brasiers de la Colère
    12 / Solo : A Star Wars Story
    ---------------------------------------------------------------------------------6/10------
    13 / Hunger Games : La Révolte, partie 2 ✔
    14 / Hunger Games
    15 / Retour à Zombieland
    16 / Hunger Games : La Révolte, partie 1✔
    17 / A Scanner Darkly
    18 / Midway
    19 / Defendor
    20 / Insaisissables
    21 / Transsiberian
    22 / Tueurs nés
    ---------------------------------------------------------------------------------5/10------
    23 / 7 psychopathes
    24 / En direct sur Ed TV
    25 / Triple 9
    26 / Self Control
    27 / Venom
    ---------------------------------------------------------------------------------4/10------
    28 / Insaisissables 2

    http://www.senscritique.com/top/Les_meilleurs_films_avec_Woody_Harrelson/1051170
  • 13 Photo Morgan Freeman

    Morgan Freeman

    acteur, producteur, réalisateur et artiste musical

    Moyenne : 6,56/10
    --------------------------------------------------------------------------------10/10------
    1 / Seven
    ----------------------------------------------------------------------------------9/10-------
    2 / The Dark Knight, le Chevalier noir
    3 / Les Evadés
    4 / Impitoyable
    ----------------------------------------------------------------------------------8/10-------
    5 / Batman Begins
    6 / The Dark Knight Rises ✔
    7 / Million Dollar Baby
    ----------------------------------------------------------------------------------7/10-------
    8 / Slevin
    9 / Invictus
    10 / Wanted : Choisis ton destin
    11 / Robin des bois, prince des voleurs
    12 / Bruce tout-puissant
    13 / Gone Baby Gone
    ----------------------------------------------------------------------------------6/10-------
    14 / Amistad
    15 / Ted 2
    16 / Sans plus attendre
    17 / Le Bûcher des vanités
    18 / Une vie inachevée
    19 / Oblivion
    20 / Danny the Dog
    21 / Insaisissables
    ----------------------------------------------------------------------------------5/10-------
    22 / Red
    23 / Lucy
    24 / Casse-Noisette et les Quatre Royaumes
    ----------------------------------------------------------------------------------4/10-------
    25 / Insaisissables 2
    26 / Deep Impact
    ----------------------------------------------------------------------------------3/10-------
    27 / Evan tout-puissant

    http://www.senscritique.com/top/Les_meilleurs_films_avec_Morgan_Freeman/999578
  • 14 Photo Harrison Ford

    Harrison Ford

    acteur et producteur

    Moyenne : 6,85/10
    ----------------------------------------------------------------------------------9/10-------
    1 / Blade Runner 2049 ✔
    ----------------------------------------------------------------------------------8/10-------
    2 / Apocalypse Now
    3 / Star Wars : Épisode V - L'Empire contre-attaque
    4 / Star Wars : Épisode VI - Le Retour du Jedi
    5 / Indiana Jones et la Dernière Croisade
    6 / Les Aventuriers de l'arche perdue
    7 / Star Wars : Épisode IV - Un nouvel espoir
    8 / Indiana Jones et le Temple maudit
    ----------------------------------------------------------------------------------7/10-------
    9 / Mosquito Coast
    10 / L'Appel de la Forêt ✔
    11 / Star Wars : Le Réveil de la Force
    12 / Blade Runner
    13 / Conversation secrète
    14 / Le Fugitif
    15 / Star Wars : L'Ascension de Skywalker ✔
    16 / American Graffiti
    17 / Légendes Vivantes
    18 / Adaline
    ----------------------------------------------------------------------------------6/10-------
    19 / L'Ouragan vient de Navarone
    20 / La Stratégie Ender
    21 / Ennemis Rapprochés
    22 / Indiana Jones et le Royaume du crâne de cristal
    23 / Apparences
    ----------------------------------------------------------------------------------5/10-------
    24 / Cowboys & Envahisseurs
    ----------------------------------------------------------------------------------4/10-------
    25 / 6 jours 7 nuits
    26 / Air Force One

    http://www.senscritique.com/top/Les_meilleurs_films_avec_Harrison_Ford/999668
  • 15 Photo James Franco

    James Franco

    acteur, réalisateur, producteur, scénariste, créateur, auteur et préfacier

    Moyenne : 6,12/10
    ----------------------------------------------------------------------------------8/10-------
    1 / La Planète des singes : Les Origines ✔
    2 / Spider-Man
    3 / 11.22.63 (Série)
    4 / The Deuce (Série)
    ----------------------------------------------------------------------------------7/10-------
    5 / The Disaster Artist
    6 / An American Crime
    7 / Spider-Man 2
    8 / Spider-Man 3
    9 / C'est la fin
    10 / La Ballade de Buster Scruggs
    11 / The Iceman
    12 / Harvey Milk
    13 / 127 Heures
    ---------------------------------------------------------------------------------6/10--------
    14 / The Green Hornet ✔
    15 / L'Interview qui tue !
    16 / True Story
    17 / Le Monde fantastique d'Oz
    18 / Palo Alto
    19 / The Holiday (caméo)
    ----------------------------------------------------------------------------------5/10-------
    20 / Mange, Prie, Aime
    21 / Délire Express
    22 / Votre Majesté
    23 / Homefront ✔
    24 / Every Thing will be Fine
    25 / Spring Breakers ✔
    ----------------------------------------------------------------------------------3/10-------
    26 / Alien : Covenant (caméo) ✔

    http://www.senscritique.com/top/Les_meilleurs_films_avec_James_Franco/999439
  • 16 Photo Jim Carrey

    Jim Carrey

    acteur, producteur, scénariste, créateur, auteur, illustrateur et artiste musical

    Moyenne : 6,12/10
    --------------------------------------------------------------------------------10/10-------
    1 / The Truman Show
    2 / Eternal Sunshine of the Spotless Mind
    ----------------------------------------------------------------------------------8/10-------
    3 / Man on the Moon
    4 / The Majestic
    ----------------------------------------------------------------------------------7/10-------
    5 / The Mask
    6 / Disjoncté
    7 / Légendes Vivantes (caméo)
    8 / Dumb and Dumber
    ----------------------------------------------------------------------------------6/10-------
    9 / Kidding (Série)
    10 / Bruce Tout-Puissant
    11 / Dumb and Dumber De
    12 / Kick-Ass 2 ✔
    13 / Yes Man
    14 / Menteur, Menteur
    15 / Fous d'Irène
    16 / Peggy Sue s'est mariée
    17 / I Love you Phillip Morris
    18 / Pecan Pie (court-métrage)
    ----------------------------------------------------------------------------------5/10-------
    19 / Ace Ventura en Afrique
    20 / Sonic, le film
    21 / Mr Popper et ses pingouins
    22 / Ace Ventura, détective chiens et chats
    ----------------------------------------------------------------------------------4/10-------
    23 / Batman Forever
    24 / The Bad Batch
    ----------------------------------------------------------------------------------3/10-------
    25 / Objectif Terrienne
    ----------------------------------------------------------------------------------2/10-------
    26 / Le Nombre 23

    http://www.senscritique.com/top/Les_meilleurs_films_avec_Jim_Carrey/999370
  • 17 Photo Christian Bale

    Christian Bale

    acteur, producteur et artiste musical

    Moyenne : 6,83/10
    ----------------------------------------------------------------------------------9/10-------
    1 / The Dark Knight, le Chevalier Noir
    2 / Le Prestige ✔
    ----------------------------------------------------------------------------------8/10-------
    3 / The Dark Knight Rises ✔
    4 / Batman Begins
    5 / Le Mans 66 ✔
    6 / The Big Short : Le Casse du siècle
    7 / Le Nouveau Monde
    8 / 3h10 pour Yuma
    ----------------------------------------------------------------------------------7/10-------
    9 / Vice
    10 / Hostiles
    11 / Exodus : Gods and Kings
    12 / American Psycho
    13 / Les Quatre Filles du docteur March
    14 / Les Brasiers de la Colère
    15 / L'Empire du Soleil
    ----------------------------------------------------------------------------------6/10-------
    16 / Sacrifices of War
    17 / Public Enemies
    18 / Le Règne du Feu
    19 / Mowgli : La Légende de la jungle (voix)
    20 / Fighter
    21 / American Bluff ✔
    22 / The Machinist
    23 / Equilibrium
    ----------------------------------------------------------------------------------5/10-------
    24 / Terminator : Renaissance
    ----------------------------------------------------------------------------------4/10-------
    25 / Knight of Cups

    http://www.senscritique.com/top/Les_meilleurs_films_avec_Christian_Bale/999647
  • 18 Photo Hugh Jackman

    Hugh Jackman

    acteur, producteur, artiste musical et préfacier

    Moyenne : 6,28/10
    ----------------------------------------------------------------------------------9/10-------
    1 / Le Prestige ✔
    ----------------------------------------------------------------------------------8/10-------
    2 / X-Men : Days of Future Past ✔
    3 / Prisoners
    4 / X-Men : Le Commencement ✔
    ----------------------------------------------------------------------------------7/10-------
    5 / Logan
    6 / Scoop
    7 / X-Men
    8 / X-Men 2
    9 / Wolverine : Le Combat de l'immortel ✔
    10 / Eddie the Eagle
    11 / The Fountain
    ----------------------------------------------------------------------------------6/10-------
    12 / The Front Runner
    13 / La Nuit au musée : Le Secret des Pharaons
    14 / X-Men : Apocalypse ✔
    15 / Real Steel
    16 / X-Men : L'Affrontement final
    17 / Chappie
    18 / Les Misérables
    ----------------------------------------------------------------------------------5/10-------
    19 / Australia
    20 / Pan
    21 / The Greatest Showman ✔
    22 / X-Men Origins : Wolverine
    23/ Opération Espadon
    24 / Van Helsing
    -----------------------------------------------------------------------------------3/10-------
    25 / My Movie Project

    http://www.senscritique.com/top/Les_meilleurs_films_avec_Hugh_Jackman/999397
  • 19 Photo Owen Wilson

    Owen Wilson

    acteur, producteur, scénariste et artiste musical

    Moyenne : 5,76/10
    --------------------------------------------------------------------------------7/10-------
    1 / The Grand Budapest Hotel
    2 / Disjoncté
    3 / La Famille Tenenbaum
    4 / Minuit à Paris
    5 / Mon beau-père et moi
    6 / Tête brûlée
    7 / La Vie aquatique
    --------------------------------------------------------------------------------6/10-------
    8 / Serial Noceurs
    9 / À bord du Darjeeling Limited
    10 / La Nuit au musée
    11 / ShanghaI Kid
    12 / La Nuit au musée : Le Secret des Pharaons
    13 / Inherent Vice
    14 / Mon beau-père, mes parents et moi
    15 / Mon beau-père et nous
    16 / Armageddon
    --------------------------------------------------------------------------------5/10-------
    17 / Shanghaï Kid 2
    18 / Le tour du monde en 80 jours
    19 / Zoolander
    20 /La Nuit au musée 2
    21 / Les Stagiaires
    22 / No Escape
    --------------------------------------------------------------------------------4/10-------
    23 / Espion et demi
    --------------------------------------------------------------------------------3/10-------
    24 / Zoolander 2
    --------------------------------------------------------------------------------2/10-------
    25 / Anaconda, le prédateur

    http://www.senscritique.com/top/Les_meilleurs_films_avec_Owen_Wilson/999153
  • 20 Photo Tom Hanks

    Tom Hanks

    acteur, producteur, scénariste, réalisateur, créateur, auteur et artiste musical

    Moyenne : 6,96/10
    ----------------------------------------------------------------------------------9/10-------
    1 / Forrest Gump
    2 / Il faut sauver le soldat Ryan
    3 / Arrête-moi si tu peux
    ----------------------------------------------------------------------------------8/10-------
    4 / Cloud Atlas
    5 / Capitaine Phillips ✔
    6 / La Ligne verte
    7 / Seul au monde
    8 / Philadelphia
    9 / Les Sentiers de la perdition
    10 / Apollo 13
    11 / Le Terminal
    ----------------------------------------------------------------------------------7/10-------
    12 / Le Pont des Espions
    13 / Pentagon Papers ✔
    14 / Sully
    15 / Big
    ----------------------------------------------------------------------------------6/10-------
    16 / La Mission
    17 / Da Vinci Code
    18 / Le Bûcher des vanités
    19 / Dans l'ombre de Mary - La Promesse de Walt Disney
    20 / Ladykillers
    ----------------------------------------------------------------------------------5/10-------
    21 / Inferno
    22 / Vous avez un mess@ge
    23 / Nuits blanches à Seattle
    24 / USS Greyhound - La Bataille de l'Atlantique
    25 / Anges & Démons

    http://www.senscritique.com/top/Les_meilleurs_films_avec_Tom_Hanks/999057
  • 21 Photo Vincent Cassel

    Vincent Cassel

    acteur, producteur, réalisateur, scénariste et artiste musical

    Moyenne : 6,56/10
    ---------------------------------------------------------------------------------9/10------
    1 / La Haine
    ---------------------------------------------------------------------------------8/10------
    2 / Black Swan ✔
    3 / Mesrine : 1ère Partie - L'Instinct de mort
    4 / Mesrine : 2ème Partie - L'Ennemi public n°1
    5 / Le Monde est à toi ✔
    6 / Irréversible
    7 / Sur mes lèvres
    ---------------------------------------------------------------------------------7/10------
    8 / Les Promesses de l'ombre
    9 / Juste la fin du monde
    10 / Mon Roi
    11 / Ocean's Twelve
    12 / Westworld : Saison 3 (Série)
    13 / Underwater
    14 / Elizabeth
    15 / Trance
    --------------------------------------------------------------------------------6/10------
    16 / Ocean's 13
    17 / Sheitan
    18 / Jeanne d'Arc
    19 / Un Moment d'égarement ✔
    20 / Enfant 44
    21 / Le Pacte des Loups
    ---------------------------------------------------------------------------------5/10------
    22 / A Dangerous Method
    23 / Jason Bourne
    ---------------------------------------------------------------------------------4/10------
    24 / Les Rivières pourpres
    ---------------------------------------------------------------------------------1/10------
    25 / Sa majesté Minor

    http://www.senscritique.com/top/Les_meilleurs_films_avec_Vincent_Cassel/999523
  • 22 Photo Jude Law

    Jude Law

    acteur, producteur et réalisateur

    Moyenne : 6,54/10
    ----------------------------------------------------------------------------------8/10-------
    1 / Stalingrad ✔
    2 / Bienvenue à Gattaca
    3 / Aviator
    4 / Sherlock Holmes : Jeu d'Ombres
    ----------------------------------------------------------------------------------7/10-------
    5 / The Grand Budapest Hotel
    6 / Le Talentueux Mr. Ripley
    7 / Sherlock Holmes
    8 / Retour à Cold Mountain
    9 / Les Sentiers de la Perdition
    10 / A.I. Intelligence Artificielle
    11 / Hugo Cabret
    12 / Anna Karénine
    13 / The Nest
    ----------------------------------------------------------------------------------6/10-------
    14 / Les Animaux fantastiques : Les Crimes de Grindelwald ✔
    15 / Un jour de pluie à New-York ✔
    16 / Captain Marvel ✔
    17 / Le Roi Arthur : La Légende d'Excalibur
    18 / The Holiday
    19 / Closer, entre adultes consentants
    20 / L'Imaginarium du Docteur Parnassus
    21 / eXistenz
    ----------------------------------------------------------------------------------5/10-------
    22 / My Blueberry Nights
    23 / Spy
    24 / Contagion

    http://www.senscritique.com/top/Les_meilleurs_films_avec_Jude_Law/999465
  • 23 Photo Mark Wahlberg

    Mark Wahlberg

    acteur, producteur, créateur et artiste musical

    Moyenne : 6,38/10
    ----------------------------------------------------------------------------------9/10-------
    1 / Les Infiltrés
    2 / Boogie Nights
    ----------------------------------------------------------------------------------8/10-------
    3 / Prisoners
    4 / La Nuit nous appartient
    5 / The Yards
    ----------------------------------------------------------------------------------7/10-------
    6 / Du sang et des larmes
    7 / The Basketball Diaries
    8 / No Pain No Gain ✔
    9 / Lovely Bones
    10 / Tout l'argent du monde
    ----------------------------------------------------------------------------------6/10-------
    11 / Shooter, tireur d'élite
    12 / La Planète des singes
    13 / Ted
    14 / Ted 2
    15 / Fighter
    16 / Braquage à l'italienne
    17 / Very Bad Dads
    18 / Phénomènes
    19 / En Pleine tempête
    20 / 2 Guns
    ----------------------------------------------------------------------------------5/10-------
    21 / Transformers : L'Âge de l'extinction ✔
    22 / Very Bad Cops
    ----------------------------------------------------------------------------------3/10-------
    23 / Transformers : The Last Knight
    24 / Max Payne

    http://www.senscritique.com/top/Les_meilleurs_films_avec_Mark_Wahlberg/999467
  • 24 Photo Anthony Hopkins

    Anthony Hopkins

    acteur, producteur, réalisateur et scénariste

    Moyenne : 6,52/10
    ----------------------------------------------------------------------------------9/10-------
    1 / Le Silence des agneaux
    ----------------------------------------------------------------------------------8/10-------
    2 / The Father
    3 / Westworld (Série)
    4 / Elephant Man
    ---------------------------------------------------------------------------------7/10-------
    5 / Dracula
    6 / Chaplin
    7 / Hannibal
    8 / Dragon rouge
    9 / Thor : Ragnarok
    10 / Les Vestiges du jour
    11 / Légendes d'Automne
    12 / Alexandre
    13 / La Légende de Beowulf
    ----------------------------------------------------------------------------------6/10-------
    14 / Mission : Impossible 2
    15 / Rencontre avec Joe Black
    16 / Amistad
    17 / Thor : Le Monde des ténèbres ✔
    18 / Le Masque de Zorro
    19 / Retour à Howards End
    ----------------------------------------------------------------------------------5/10-------
    20 / Thor ✔
    21 / Prémonitions
    22 / Noé
    ----------------------------------------------------------------------------------3/10-------
    23 / Transformers : The Last Knight

    http://www.senscritique.com/top/Les_meilleurs_films_avec_Anthony_Hopkins/999630
  • 25 Photo Bill Murray

    Bill Murray

    acteur, producteur, réalisateur, scénariste et artiste musical

    Moyenne : 6,48/10
    ----------------------------------------------------------------------------------8/10-------
    1 / Un jour sans fin ✔
    2 / Moonrise Kingdom
    ----------------------------------------------------------------------------------7/10-------
    3 / La Petite Boutique des Horreurs
    4 / The Grand Budapest Hotel
    5 / Bienvenue à Zombieland
    6 / Rushmore
    7 / S.O.S Fantômes
    8 / Toostsie
    9 / Le Livre de la jungle (voix) ✔
    10 / Ed Wood
    11 / Lost in Translation
    12 / La Famille Tenenbaum
    13 / La Vie aquatique
    14 / Osmosis Jones
    ----------------------------------------------------------------------------------6/10-------
    15 / À bord du Darjeeling Limited
    16 / Space Jam
    17 / Sexcrimes
    18 / S.O.S Fantômes 2
    ----------------------------------------------------------------------------------5/10-------
    19 / La Cité de l'ombre
    20 / The Dead Don't Die ✔
    21 / Max la menace
    ----------------------------------------------------------------------------------4/10-------
    22 / Monuments Men
    23 / Charlie et ses drôles de dames

    http://www.senscritique.com/top/Les_meilleurs_films_avec_Bill_Murray/999658
  • 26 Photo Colin Farrell

    Colin Farrell

    acteur, producteur et artiste musical

    Moyenne : 6,39/10
    ----------------------------------------------------------------------------------8/10-------
    1 / Bons baisers de Bruges
    2 / Minority Report
    3 / Le Nouveau Monde
    4 / The Gentlemen ✔
    ----------------------------------------------------------------------------------7/10-------
    5 / Phone Game
    6 / Miami Vice, deux flics à Miami
    7 / The Lobster
    8 / Les Animaux fantastiques ✔
    9 / Le Rêve de Cassandre
    10 / True Detective : Saison 2 (Série)
    11 / Mise à mort du cerf sacré
    12 / Alexandre
    13 / Les Chemins de la liberté ✔
    ----------------------------------------------------------------------------------6/10-------
    14 / Les Veuves
    15 / Dumbo
    16 / Comment tuer son Boss
    17 / L'Imaginarium du Docteur Parnassus
    18 / Dans l'ombre de Mary - La Promesse de Walt Disney
    ----------------------------------------------------------------------------------5/10-------
    19 / 7 psychopathes
    20 / Prémonitions
    21 / Total Recall : Mémoires programmées ✔
    ----------------------------------------------------------------------------------4/10-------
    22 / Daredevil
    ----------------------------------------------------------------------------------3/10-------
    23 / Artemis Fowl

    http://www.senscritique.com/top/Les_meilleurs_films_avec_Colin_Farrell/999149
  • 27 Photo Ewan McGregor

    Ewan McGregor

    acteur, réalisateur, producteur, artiste musical et auteur

    Moyenne : 6,87/10
    --------------------------------------------------------------------------------9/10-------
    1 / Trainspotting
    2 / Star Wars : Épisode III - La Revanche des Sith
    --------------------------------------------------------------------------------8/10-------
    3 / La Chute du faucon noir
    4 / Star Wars : Épisode II - L'Attaque des clones
    5 / Star Wars : Épisode I - La Menace fantôme
    6 / Big Fish
    7 / Perfect Sense
    --------------------------------------------------------------------------------7/10-------
    8 / The Impossible
    9 / Doctor Sleep ✔
    10 / Fargo : Saison 3 (Série)
    11 / T2 : Trainspotting
    12 / Le Rêve de Cassandre
    13 / The Island
    14 / Une vie moins ordinaire
    --------------------------------------------------------------------------------6/10-------
    15 / The Ghost Writer
    16 / Moulin Rouge !
    17 / Petits meurtres entre amis
    18 / I Love You Phillip Morris
    19 / La Belle et la Bête
    20 / Albert à l'Ouest
    --------------------------------------------------------------------------------5/10-------
    21 / Birds of Prey (et la fantabuleuse histoire de Harley Quinn) ✔
    22 / Anges & Démons
    23 / Jack le chasseur de géants

    http://www.senscritique.com/top/Les_meilleurs_films_avec_Ewan_Mc_Gregor/999477
  • 28 Photo Gary Oldman

    Gary Oldman

    acteur, producteur, réalisateur, scénariste, auteur et artiste musical

    Moyenne : 7,13/10
    ----------------------------------------------------------------------------------9/10-------
    1 / The Dark Knight, le Chevalier Noir
    2 / Léon
    ----------------------------------------------------------------------------------8/10-------
    3 / La Planète des Singes : L'Affrontement
    4 / The Dark Knight Rises ✔
    5 / Batman Begins
    6 / Harry Potter et les Reliques de Mort : Partie 2 ✔
    7 / Le Cinquième Element
    8 / Harry Potter et la Coupe de Feu
    9 / Harry Potter et le Prisonnier d'Azkaban
    10 / True Romance
    11 / Des Hommes sans Loi
    12 / Les Heures sombres
    ----------------------------------------------------------------------------------7/10-------
    13 / Dracula
    14 / JFK
    15 / Harry Potter et l'Ordre du Phénix ✔
    16 / Hannibal
    ----------------------------------------------------------------------------------6/10-------
    17 / Mank
    18 / RoboCop
    19 / Enfant 44
    20 / Le Livre d'Eli
    ----------------------------------------------------------------------------------5/10-------
    21 / La Taupe
    ----------------------------------------------------------------------------------4/10-------
    22 / La Femme à la fenêtre
    23 / Air Force One

    http://www.senscritique.com/top/Les_meilleurs_films_avec_Gary_Oldman/999654
  • 29 Photo John Goodman

    John Goodman

    acteur, producteur et artiste musical

    Moyenne : 6,22/10
    -----------------------------------------------------------------------------------8/10-------
    1 / O'Brother ✔
    2 / Arizona Junior
    3 / Argo
    4 / Barton Fink
    5 / The Big Lebowski
    -----------------------------------------------------------------------------------7/10-------
    6 / 10 Cloverfield Lane
    7 / The Artist
    8 / Dalton Trumbo
    9 / Panic sur Florida Beach
    10 / Inside Llewyn Davis
    11 / Flight
    -----------------------------------------------------------------------------------6/10-------
    12 / Kong : Skull Island ✔
    13 / Atomic Blonde
    14 / Death Sentence
    15 / Speed Racer
    16 / Always - Pour toujours
    17 / À tombeau ouvert
    -----------------------------------------------------------------------------------5/10-------
    18 / Transformers : L'Âge de l'extinction (voix) ✔
    19 / Les Stagiaires
    20 / Very Bad Trip 3 ✔
    -----------------------------------------------------------------------------------4/10-------
    21 / Monuments Men
    -----------------------------------------------------------------------------------3/10-------
    22 / Transformers : The Last Knight (voix)
    23 / Evan tout-puissant

    https://www.senscritique.com/top/Les_meilleurs_films_avec_John_Goodman/1605198
  • 30 Photo Robert Downey Jr.

    Robert Downey Jr.

    acteur, producteur, scénariste et artiste musical

    Moyenne : 6,74/10
    ----------------------------------------------------------------------------------8/10-------
    1 / Avengers : Endgame ✔
    2 / Zodiac
    3 / Avengers : Infinity War ✔
    4 / Sherlock Holmes : Jeu d'Ombres
    ----------------------------------------------------------------------------------7/10-------
    5 / Sherlock Holmes
    6 / Iron Man
    7 / Captain America : Civil War ✔
    8 / Avengers : L'Ère d'Ultron ✔
    9 / Avengers ✔
    10 / Tonerre sous les Tropiques
    11 / Chaplin
    12 / Kiss Kiss Bang Bang
    13 / Le Juge
    14 / Le Soliste
    ----------------------------------------------------------------------------------6/10-------
    15 / Spider-Man : Homecoming
    16 / Iron Man 3 ✔
    17 / #Chef
    18 / Date Limite
    19 / A Scanner Darkly
    20 / Wonder Boys
    21 / Tueurs Nés
    ----------------------------------------------------------------------------------5/10-------
    22 / Gothika
    23 / Iron Man 2

    http://www.senscritique.com/top/Les_meilleurs_films_avec_Robert_Downey_Jr/999164