Top Acteurs 2.0

Avatar Nathan56 Liste de

556 personnalités

par Nathan56

Classement des films par acteur,sans prise en compte des films d'animations, 5 films minimum par acteur. Ils sont classés selon le nombre de films visionnés. De plus les acteurs avec plus de 10 films sont classés dans un Top 10 selon la moyenne des films visionnés.

✔ signifie que j'ai vu le film au cinéma (soit dans les meilleures conditions possibles)

Mes autres listes :
http://www.senscritique.com/liste/Grands_Realisateurs_2_0/774965
https://www.senscritique.com/liste/Top_Actrices_2_0/1605223

Top 15 Acteurs (à partir de 10 films):
1° - Leonardo DiCaprio ...... (8,05/10)
2° - Andy Serkis ................ (8/10)
3° - Clint Eastwood ............ (7,75/10)
4° - Sean Penn ................... (7,7/10)
5° - Elijah Wood .................. (7,69/10)
6° - Brian Cox .................... (7,67/10)
7° - Jared Leto ....................(7,67/10)
8° - Orlando Bloom ............. (7,64/10)
9° - Ian Holm.......................(7,62/10)
10° - Tom Felton ................... (7,6/10)
11° - Al Pacino .................... (7,55/10)
12°- Domnhall Gleeson ....... (7,54/10)
13° - Brad Pitt ..................... (7,48/10)
14° - Michael Caine ............ (7,47/10)
15° - Hugo Weaving ........... (7,44/10)

Flop 15 Acteurs
1° - Kad Merad .................... (5,3/10)
2° - Francois Damiens ......... (5,33/10)
3° - Omar Sy ...................... (5,35/10)
4° - Seann William Scott ...... (5,38/10)
5° - Ludacris ........................ (5,5/10)
6° - Danny Trejo .................. (5,54/10)
7° - Dwayne Johnson .......... (5,55/10)
8° - Jon Favreau ..................(5,55/10)
9° - Michel Galabru ............. (5,6/10)
10° - Michael Sheen ............. (5,64/10)
11° - Jean-Paul Rouve .......... (5,67/10)
12° - Owen Wilson ............... (5,68/10)
13° - Ciarán Hinds ............... (5,7/10)
14° - Keanu Reeves ............ (5,77/10)
15° - Vince Vaughn .............. (5,82/10)

Trier par : Tri par défaut
  • Tri par défaut
  • Ordre alphabétique
  • Derniers ajouts
  • 1 Photo Samuel L. Jackson

    Samuel L. Jackson

    acteur, producteur, artiste musical et préface

    Moyenne : 6,83/10
    ----------------------------------------------------------------------------------9/10-------
    1 / Jurassic Park ✔
    2 / Star Wars Episode III : La Revanche des Siths
    3 / Kingsman : Services secrets ✔
    4 / Django Unchained
    5 / Les 8 Salopards ✔
    6 / Kill Bill : Volume 1
    7 / Kill Bill : Volume 2
    ----------------------------------------------------------------------------------8/10-------
    8 / Une Journée en Enfer
    9 / Pulp Fiction
    10 / Star Wars Episode I : La Menace Fantôme
    11 / Star Wars Episode II : L'Attaque des Clones
    12 /True Romance
    13 / Do The Right Thing
    ----------------------------------------------------------------------------------7/10-------
    14 / Iron Man
    15 / Avengers : L'Ère d'Ultron ✔
    16 / Avengers ✔
    17 / Captain America : Le Soldat de l'Hiver ✔
    18 / Incassable
    19 /Jackie Brown
    20 / Black Snake Moan
    21 / Chambre 1408
    ----------------------------------------------------------------------------------6/10-------
    22 / RoboCop
    23 / Double Mise
    24 / Kong : Skull Island ✔
    25 / Jumper
    26 / Captain America : First Avenger ✔
    ----------------------------------------------------------------------------------5/10-------
    27 / Thor ✔
    28 / Iron Man 2
    29 / Miss Peregrine et les Enfants particuliers
    30 / Tarzan
    31 / Des Serpents dans l'Avion
    32 / Oldboy (US)
    33 / Very Bad Cops
    ----------------------------------------------------------------------------------4/10-------
    34 / xXx
    ----------------------------------------------------------------------------------3/10-------
    35 / xXx : The Next Level

    http://www.senscritique.com/top/Les_meilleurs_films_avec_Samuel_L_Jackson/999573
  • 2 Photo Brad Pitt

    Brad Pitt

    producteur, acteur et artiste musical

    Moyenne : 7,48/10
    --------------------------------------------------------------------------------10/10-------
    1 / Seven
    2 / Fight Club
    ----------------------------------------------------------------------------------9/10-------
    3 / L'Etrange Histoire de Benjamin Button ✔
    4 / Entretien avec un Vampire
    ----------------------------------------------------------------------------------8/10-------
    5 / Inglorious Basterds
    6 / L'Armée des 12 Singes
    7 / Snatch
    8 / L'Assassinat de Jesse James par le lâche Robert Ford
    9 / The Big Short : Le Casse du siècle
    10 / Sleepers
    11 / 12 Years a Slave
    12 / Troie
    13 / Thelma et Louise
    14 / Fury
    15 /True Romance
    16 / Babel
    17 / Dans la Peau de John Malkovich
    ----------------------------------------------------------------------------------7/10-------
    18 / World War Z ✔
    19 / Alliés
    20 / Burn After Reading
    21 / Ocean's Eleven
    22 / Et au Milieu coule une Rivière
    23 / Confessions d'un homme dangereux (caméo)
    24 / Légendes d'Automne
    25 / Sept Ans au Tibet
    ----------------------------------------------------------------------------------6/10-------
    26 / Ocean's 13
    27 / Mr. & Mrs Smith
    28 / Ocean's Twelve
    29 / Spy game, jeu d'espions
    30 / Ennemis Rapprochés
    ----------------------------------------------------------------------------------4/10-------
    31 / Cartel

    http://www.senscritique.com/top/Les_meilleurs_films_avec_Brad_Pitt/999644
  • 3 Photo Robert De Niro

    Robert De Niro

    acteur, producteur, éditeur, réalisateur et artiste musical

    Moyenne : 7,23/10
    ---------------------------------------------------------------------------------10/10-------
    1 / Voyage au bout de l'enfer ✔
    ----------------------------------------------------------------------------------9/10-------
    2 / Les Affranchis
    3 / Il était une fois en Amérique
    4 / Casino
    5 / Taxi Driver
    ----------------------------------------------------------------------------------8/10-------
    6 / Heat
    7 / Brazil
    8 / Sleepers
    9 / Le Parrain : 2e Partie
    10 / Angel Heart
    11 / Raging Bull
    12 / Les Incorruptibles
    13 / La Valse des Pantins
    ----------------------------------------------------------------------------------7/10-------
    14 / Jackie Brown
    15 / Les Nerfs à vif
    16 / Happiness Therapy
    17 / Mon beau-père et moi
    18 / Mission
    19 / Machete
    ----------------------------------------------------------------------------------6/10-------
    20 / Limitless
    21 / Hands of Stone
    22 / Public Enemies
    23 / Raisons d'état
    24 / Midnight Run
    25 / Mon beau-père, mes parents et moi
    26 / American Bluff ✔
    27 / Mon beau-père et nous
    28 / Mean Streets
    29 / Joy ✔
    30 / Malavita
    ----------------------------------------------------------------------------------5/10-------
    31 / Killer Elite

    http://www.senscritique.com/top/Les_meilleurs_films_avec_Robert_de_Niro/999666
  • 4 Photo Matt Damon

    Matt Damon

    acteur, producteur, scénariste et créateur

    Moyenne : 6,66/10
    ----------------------------------------------------------------------------------10/10------
    1 / Interstellar ✔
    ----------------------------------------------------------------------------------9/10-------
    2 / Les Infiltrés
    3 / Il faut sauver le soldat Ryan
    ----------------------------------------------------------------------------------8/10-------
    4 / Will Hunting
    5 / La Mémoire dans la peau
    6 / Seul sur Mars ✔
    7 / La Mort dans la peau
    8 / La Vengeance dans la peau
    9 / True Grit
    ----------------------------------------------------------------------------------7/10-------
    10 / Le Talentueux Mr. Ripley
    11 / Ocean's Eleven
    12 / Confessions d'un homme dangereux (caméo)
    13 / Thor : Ragnarok (caméo)
    14 / Les Joueurs
    15 / Invictus
    ----------------------------------------------------------------------------------6/10-------
    16 / Ocean's 13
    17 / Raisons d'état
    18 / Ocean's Twelve
    19 / Gerry
    20 / Bienvenue à Suburbicon
    21 / La Grande Muraille
    22 / Green Zone
    23 / Downsizing
    ----------------------------------------------------------------------------------5/10-------
    24 / Elysium
    25 / Sex Trip
    26 / Deux en un
    27 / Contagion
    ----------------------------------------------------------------------------------4/10-------
    28 / L'Agence
    29 / Monuments Men

    http://www.senscritique.com/top/Les_meilleurs_films_avec_Matt_Damon/999483
  • 5 Photo Bruce Willis

    Bruce Willis

    artiste musical, producteur, acteur et scénariste

    Moyenne : 6,54/10
    ----------------------------------------------------------------------------------9/10-------
    1 / Piège de Cristal
    ----------------------------------------------------------------------------------8/10-------
    2 / L'Armée des 12 Singes
    3 / Une Journée en Enfer
    4 / Pulp Fiction
    5 / Sin City
    6 / Le Cinquième Elément
    7 / Moonrise Kingdom
    ----------------------------------------------------------------------------------7/10-------
    8 / Looper
    9 / Sin City : J'ai Tué pour Elle
    10 / Le Dernier Samaritain
    11 / Slevin
    12 / Incassable
    13 / Sixième Sens
    14 / Planète Terreur
    15 / I'm Still Here
    ----------------------------------------------------------------------------------6/10-------
    16 / Split (caméo) ✔
    17 / 58 Minutes pour Vivre
    18 / Le Bûcher des vanités
    19 / Mon Voisin le Tueur
    20 / 16 Blocs
    21 / Les Larmes du Soleil
    22 / Armaggedon
    ----------------------------------------------------------------------------------5/10-------
    23 / Red
    24 / Clones
    25 / Mon Voisin le Tueur 2
    26 / Die Hard 4 : Retour en Enfer
    ----------------------------------------------------------------------------------4/10-------
    27 / Die Hard : Belle Journée pour Mourir
    28 / Top Cops

    http://www.senscritique.com/top/Les_meilleurs_films_avec_Bruce_Willis/999639
  • 6 Photo Morgan Freeman

    Morgan Freeman

    réalisateur, artiste musical, producteur et acteur

    Moyenne : 6,6/10
    --------------------------------------------------------------------------------10/10------
    1 / Seven
    ----------------------------------------------------------------------------------9/10-------
    2 / The Dark Knight, le Chevalier noir
    3 / Les Evadés
    4 / Impitoyable
    ----------------------------------------------------------------------------------8/10-------
    5 / The Dark Knight Rises ✔
    6 / Batman Begins
    7 / Million Dollar Baby
    ----------------------------------------------------------------------------------7/10-------
    8 / Slevin
    9 / Invictus
    10 / Wanted : Choisis ton destin
    11 / Robin des bois, prince des voleurs
    12 / Bruce tout-puissant
    13 / Gone Baby Gone
    ----------------------------------------------------------------------------------6/10-------
    14 / Ted 2
    15 / Sans plus attendre
    16 / Le Bûcher des vanités
    17 / Une vie inachevée
    18 / Oblivion
    19 / Insaisissables
    ----------------------------------------------------------------------------------5/10-------
    20 / Red
    21 / Lucy
    22 / Danny the Dog
    ----------------------------------------------------------------------------------4/10-------
    23 / Insaisissables 2
    24 / Deep Impact
    ----------------------------------------------------------------------------------3/10-------
    25 / Evan tout-puissant

    http://www.senscritique.com/top/Les_meilleurs_films_avec_Morgan_Freeman/999578
  • 7 Photo Johnny Depp

    Johnny Depp

    réalisateur, producteur, acteur, scénariste, artiste musical et auteur

    Moyenne : 6,71/10
    ----------------------------------------------------------------------------------8/10-------
    1 / Platoon
    2 / Edward aux mains d'argent
    3 / Sweeney Todd, le diabolique barbier de Fleet Street
    4 / Pirates des Caraïbes : Le Secret du coffre maudit
    5 / Pirates des Caraïbes : La Malédiction du Black Pearl
    ----------------------------------------------------------------------------------7/10-------
    6 / 21 Jump Street (caméo)
    7 / Ed Wood
    8 / Charlie et la Chocolaterie
    9 / Les Animaux fantastiques ✔
    10 / Blow
    11 / Sleepy Hollow, la légende du cavalier sans tête
    12 / Las Vegas Parano
    13 / Gilbert Grape
    14 / Les Griffes de la nuit
    15 / Pirates des Caraïbes : Jusqu'au bout du monde
    ----------------------------------------------------------------------------------6/10-------
    16 / Public Enemies
    17 / Lone Ranger : Naissance d'un héros
    18 / Pirates des Caraïbes : La Vengeance de Salazar ✔
    19 / Pirates des Caraïbes : La Fontaine de Jouvence ✔
    20 / Neverland
    21 / L'Imaginarium du Docteur Parnassus
    22 / Le Crime de l'Orient-Express
    23 / Alice de l'autre côté du miroir ✔
    ----------------------------------------------------------------------------------5/10-------
    23 / Alice au pays des merveilles
    24 / Dark Shadows

    http://www.senscritique.com/top/Les_meilleurs_films_avec_Johnny_Depp/999621
  • 8 Photo James Franco

    James Franco

    acteur, réalisateur, producteur, scénariste, créateur, auteur et préface

    Moyenne : 5,96/10
    ----------------------------------------------------------------------------------8/10-------
    1 / La Planète des singes : Les Origines ✔
    2 / Spider-Man
    ----------------------------------------------------------------------------------7/10-------
    3 / The Disaster Artist
    4 / An American Crime
    5 / Spider-Man 2
    6 / Spider-Man 3
    7 / C'est la fin
    8 / The Iceman
    9 / Harvey Milk
    10 / 127 Heures
    ---------------------------------------------------------------------------------6/10--------
    11 / The Green Hornet ✔
    12 / L'Interview qui tue !
    13 / True Story
    14 / Le Monde fantastique d'Oz
    15 / Mange, Prie, Aime
    16 / Palo Alto
    17 / The Holiday (caméo)
    ----------------------------------------------------------------------------------5/10-------
    18 / Délire Express
    19 / Votre Majesté
    20 / Homefront ✔
    21 / Every Thing will be Fine
    22 / Spring Breakers ✔
    ----------------------------------------------------------------------------------3/10-------
    23 / Alien : Covenant (caméo) ✔

    http://www.senscritique.com/top/Les_meilleurs_films_avec_James_Franco/999439
  • 9 Photo Liam Neeson

    Liam Neeson

    acteur, réalisateur et artiste musical

    Moyenne : 6,35/10
    ----------------------------------------------------------------------------------9/10-------
    1 / La Liste de Schindler
    ----------------------------------------------------------------------------------8/10-------
    2 / The Dark Knight Rises ✔
    3 / Batman Begins
    4 / Gangs of New York
    5 / Star Wars : Épisode I - La Menace fantôme
    6 / Quelques minutes après minuit (voix)
    ----------------------------------------------------------------------------------7/10-------
    7 / Taken
    8 / Le Monde de Narnia : Chapitre 1 (voix)
    9 / Mission
    10 / Le Territoire des Loups
    11 / Légendes Vivantes (caméo)
    ----------------------------------------------------------------------------------6/10-------
    12 / Love Actually
    13 / Ted 2 (caméo)
    14 / Non-Stop
    15 / Albert à l'Ouest
    16 / Kindgom of Heaven
    ----------------------------------------------------------------------------------5/10-------
    17 / Le Monde de Narnia : Chapitre 2 (voix)
    18 / Le Monde de Narnia : Chapitre 3 (voix) ✔
    19 / Le Choc des Titans
    20 / La Colère des Titans ✔
    21 / L'Agence tous risques
    ----------------------------------------------------------------------------------4/10-------
    22 / Taken 2
    ----------------------------------------------------------------------------------3/10-------
    23 / Taken 3

    http://www.senscritique.com/top/Les_meilleurs_films_avec_Liam_Neeson/999420
  • 10 Photo Mark Wahlberg

    Mark Wahlberg

    artiste musical, producteur et acteur

    Moyenne : 6,41/10
    ----------------------------------------------------------------------------------9/10-------
    1 / Les Infiltrés
    2 / Boogie Nights
    ----------------------------------------------------------------------------------8/10-------
    3 / Prisoners
    4 / La Nuit nous appartient
    5 / The Yards
    ----------------------------------------------------------------------------------7/10-------
    6 / Du sang et des larmes
    7 / The Basketball Diaries
    8 / No Pain No Gain ✔
    9 / Lovely Bones
    10 / Tout l'argent du monde
    ----------------------------------------------------------------------------------6/10-------
    11 / Shooter, tireur d'élite
    12 / La Planète des singes
    13 / Ted
    14 / Ted 2
    15 / Fighter
    16 / Braquage à l'italienne
    17 / Very Bad Dads
    18 / 2 Guns
    ----------------------------------------------------------------------------------5/10-------
    19 / Transformers : L'Âge de l'extinction ✔
    20 / Very Bad Cops
    ----------------------------------------------------------------------------------3/10-------
    21 / Transformers : The Last Knight
    22 / Max Payne

    http://www.senscritique.com/top/Les_meilleurs_films_avec_Mark_Wahlberg/999467
  • 11 Photo Nicolas Cage

    Nicolas Cage

    artiste musical, producteur, acteur et réalisateur

    Moyenne : 6/10
    ----------------------------------------------------------------------------------8/10-------
    1 / Lord of War
    2 / Arizona Junior
    3 / Snake Eyes
    4 / Volte/face
    ----------------------------------------------------------------------------------7/10-------
    5 / Leaving Las Vegas
    6 / Kick-Ass
    7 / Snowden
    8 / Windtalkers, les messagers du vent
    9 / Les Associés
    10 / Adaptation.
    ----------------------------------------------------------------------------------6/10-------
    11 / Benjamin Gates et le Trésor des Templiers
    12 / Benjamin Gates et le Livre des secrets
    13 / Les Ailes de l'enfer
    14 / Rock
    15 / 60 secondes chrono
    16 / Sailor et Lula
    ----------------------------------------------------------------------------------5/10-------
    17 / World Trade Center
    ----------------------------------------------------------------------------------4/10-------
    18 / Ghost Rider
    19 / L'Apprenti Sorcier
    20 / Bangkok Dangerous
    ----------------------------------------------------------------------------------3/10-------
    21 / Prédictions
    ----------------------------------------------------------------------------------2/10-------
    22 / Ghost Rider : L'Esprit de vengeance

    http://www.senscritique.com/top/Les_meilleurs_films_avec_Nicolas_Cage/999665
  • 12 Photo Tom Cruise

    Tom Cruise

    scénariste, producteur, acteur et artiste musical

    Moyenne : 7,14/10
    ----------------------------------------------------------------------------------9/10-------
    1 / Entretien avec un vampire
    ----------------------------------------------------------------------------------8/10-------
    2 / Magnolia
    3 / Rain Man
    4 / Collateral
    5 / Mission : Impossible - Rogue Nation ✔
    6 / Minority Report
    ----------------------------------------------------------------------------------7/10-------
    7 / La Guerre des mondes
    8 / Edge of Tomorrow
    9 / Eyes Wide Shut
    10 / Tonnerre sous les tropiques
    11 / Mission : Impossible
    12 / Walkyrie
    13 / Le Dernier Samouraï
    14 / Mission : Impossible - Protocole fantôme
    15 / Mission : Impossible III
    16 / Vanilla Sky
    17 / Jerry Maguire
    18 / Né un 4 Juillet
    ----------------------------------------------------------------------------------6/10-------
    19 / Top Gun
    20 / Mission : Impossible 2
    21 / Jack Reacher
    22 / Oblivion

    http://www.senscritique.com/top/Les_meilleurs_films_avec_Tom_Cruise/999026
  • 13 Photo Willem Dafoe

    Willem Dafoe

    artiste musical, acteur, producteur et scénariste

    Moyenne : 6,64/10
    --------------------------------------------------------------------------------8/10-------
    1 / Platoon
    2 / Spider-Man
    3 / Inside Man, l'homme de l'intérieur
    4 / Aviator
    5 / Mississippi Burning
    --------------------------------------------------------------------------------7/10-------
    6 / The Grand Budapest Hotel
    7 / Le Patient anglais
    8 / Spider-Man 2
    9 / Spider-Man 3
    10 / American Psycho
    11 / Nymphomaniac : Volume 2
    12 / Les Brasiers de la Colère
    13 / La Vie aquatique
    14 / Paris, je t'aime
    --------------------------------------------------------------------------------6/10-------
    15 / eXistenZ
    16 / La Grande Muraille
    17 / Sailor et Lula
    18 / Le Crime de l'Orient-Express
    19 / Le Chasseur
    --------------------------------------------------------------------------------5/10-------
    20 / John Carter (voix)
    21 / John Wick
    --------------------------------------------------------------------------------3/10-------
    22 / XXX 2 : The Next Level

    http://www.senscritique.com/top/Les_meilleurs_films_avec_Willem_Dafoe/999046
  • 14 Photo Christian Bale

    Christian Bale

    artiste musical, producteur et acteur

    Moyenne : 6,86/10
    ----------------------------------------------------------------------------------9/10-------
    1 / The Dark Knight, le Chevalier Noir
    2 / Le Prestige
    ----------------------------------------------------------------------------------8/10-------
    3 / The Dark Knight Rises ✔
    4 / Batman Begins
    5 / The Big Short : Le Casse du siècle
    6 / Le Nouveau Monde
    7 / 3h10 pour Yuma
    ----------------------------------------------------------------------------------7/10-------
    8 / Exodus : Gods and Kings
    9 / American Psycho
    10 / Les Quatre Filles du docteur March
    11 / Les Brasiers de la Colère
    12 / L'Empire du Soleil
    ----------------------------------------------------------------------------------6/10-------
    13 / Sacrifices of War
    14 / Public Enemies
    15 / Le Règne du Feu
    16 / Fighter
    17 / American Bluff ✔
    18 / The Machinist
    19 / Equilibrium
    ----------------------------------------------------------------------------------5/10-------
    20 / Terminator : Renaissance
    ----------------------------------------------------------------------------------4/10-------
    21 / Knight of Cups

    http://www.senscritique.com/top/Les_meilleurs_films_avec_Christian_Bale/999647
  • 15 Photo Harrison Ford

    Harrison Ford

    acteur et producteur

    Moyenne : 6,85/10
    ----------------------------------------------------------------------------------9/10-------
    1 / Blade Runner 2049 ✔
    ----------------------------------------------------------------------------------8/10-------
    2 / Apocalypse Now
    3 / Star Wars : Le Réveil de la Force ✔
    4 / Star Wars : Épisode V - L'Empire contre-attaque
    5 / Star Wars : Épisode VI - Le Retour du Jedi
    6 / Indiana Jones et la Dernière Croisade
    7 / Les Aventuriers de l'arche perdue
    8 / Star Wars : Épisode IV - Un nouvel espoir
    9 / Indiana Jones et le Temple maudit
    ----------------------------------------------------------------------------------7/10-------
    10 / Mosquito Coast
    11 / Blade Runner
    12 / Conversation secrète
    13 / Le Fugitif
    14 / Légendes Vivantes
    ----------------------------------------------------------------------------------6/10-------
    15 / L'Ouragan vient de Navarone
    16 / La Stratégie Ender
    17 / Ennemis Rapprochés
    ----------------------------------------------------------------------------------5/10-------
    18 / Cowboys & Envahisseurs
    19 / Indiana Jones et le Royaume du crâne de cristal
    ----------------------------------------------------------------------------------4/10-------
    20 / 6 jours 7 nuits
    21 / Air Force One

    http://www.senscritique.com/top/Les_meilleurs_films_avec_Harrison_Ford/999668
  • 16 Photo Hugh Jackman

    Hugh Jackman

    acteur, producteur, artiste musical et préface

    Moyenne : 6,48/10
    ----------------------------------------------------------------------------------9/10-------
    1 / Le Prestige
    ----------------------------------------------------------------------------------8/10-------
    2 / X-Men : Days of Future Past ✔
    3 / Prisoners
    4 / X-Men : Le Commencement ✔
    ----------------------------------------------------------------------------------7/10-------
    5 / Logan
    6 / Scoop
    7 / X-Men
    8 / X-Men 2
    9 / Wolverine : Le Combat de l'immortel ✔
    10 / Eddie the Eagle
    11 / The Fountain
    12 / La Nuit au musée : Le Secret des Pharaons
    ----------------------------------------------------------------------------------6/10-------
    13 / X-Men : Apocalypse ✔
    14 / Real Steel
    15 / X-Men : L'Affrontement final
    16 / Chappie
    ----------------------------------------------------------------------------------5/10-------
    17 / The Greatest Showman
    18 / X-Men Origins : Wolverine
    19 / Opération Espadon
    20 / Van Helsing
    ---t-------------------------------------------------------------------------------3/10-------
    21 / My Movie Project

    http://www.senscritique.com/top/Les_meilleurs_films_avec_Hugh_Jackman/999397
  • 17 Photo Tom Hanks

    Tom Hanks

    scénariste, acteur, réalisateur, artiste musical, producteur, créateur et auteur

    Moyenne : 7,33/10
    ----------------------------------------------------------------------------------9/10-------
    1 / Forrest Gump
    2 / Il faut sauver le soldat Ryan
    3 / Arrête-moi si tu peux
    ----------------------------------------------------------------------------------8/10-------
    4 / Cloud Atlas
    5 / Capitaine Phillips ✔
    6 / La Ligne verte
    7 / Seul au monde
    8 / Philadelphia
    9 / Les Sentiers de la perdition
    10 / Apollo 13
    11 / Le Terminal
    ----------------------------------------------------------------------------------7/10-------
    12 / Le Pont des Espions
    13 / Pentagon Papers ✔
    14 / Sully
    15 / Big
    ----------------------------------------------------------------------------------6/10-------
    16 / Da Vinci Code
    17 / Le Bûcher des vanités
    18 / Dans l'ombre de Mary - La Promesse de Walt Disney
    19 / Ladykillers
    20 / Inferno
    ----------------------------------------------------------------------------------5/10-------
    21 / Anges & Démons

    http://www.senscritique.com/top/Les_meilleurs_films_avec_Tom_Hanks/999057
  • 18 Photo Arnold Schwarzenegger

    Arnold Schwarzenegger

    réalisateur, artiste musical, acteur, auteur et producteur

    Moyenne : 6,2/10
    ----------------------------------------------------------------------------------9/10-------
    1 / Terminator 2 : Le Jugement dernier ✔
    ----------------------------------------------------------------------------------8/10-------
    2 / Last Action Hero
    3 / Terminator ✔
    4 / Predator
    ----------------------------------------------------------------------------------7/10-------
    5 / Total Recall ✔
    6 / Commando
    7 / Terminator 3 : Le Soulèvement des machines
    8 / True Lies
    ----------------------------------------------------------------------------------6/10-------
    9 / Conan le barbare
    10 / Running Man
    11 / Évasion
    12 / Le Dernier Rempart
    13 / Bienvenue dans la jungle (caméo)
    14 / Jumeaux
    15 / Le Tour du monde en 80 jours
    ----------------------------------------------------------------------------------5/10-------
    16 / Le Privé (caméo)
    17 / À l'aube du 6ème jour
    18 / Un Flic à la Maternelle
    ----------------------------------------------------------------------------------4/10-------
    19 / Terminator : Genisys
    ----------------------------------------------------------------------------------2/10-------
    20 / Batman & Robin

    http://www.senscritique.com/top/Les_meilleurs_films_avec_Arnold_Schwarzenegger/999540
  • 19 Photo Bill Nighy

    Bill Nighy

    acteur

    Moyenne : 6,35/10
    ----------------------------------------------------------------------------------8/10-------
    1 / Il était temps
    2 / Shaun of the Dead
    3 / Harry Potter et les Reliques de la Mort : 1ère partie ✔
    4 / Pirates des Caraïbes : Le Secret du coffre maudit
    ----------------------------------------------------------------------------------7/10-------
    5 / Hot Fuzz ✔
    6 / Pride
    7 / Good Morning England
    8 / Pirates des Caraïbes : Jusqu'au bout du monde
    9 / Petits meurtres à l'anglaise
    10 / Walkyrie
    11 / Le Dernier Pub avant la fin du monde
    12 / Indian Palace ✔
    ----------------------------------------------------------------------------------6/10-------
    13 / Love Actually
    14 / H2G2 : Le Guide du voyageur galactique
    ----------------------------------------------------------------------------------5/10-------
    15 / Total Recall : Mémoires programmées ✔
    16 / La Colère des Titans ✔
    17 / Jack le chasseur de géants
    ----------------------------------------------------------------------------------4/10-------
    18 / Underworld
    19 / Underworld 2 : Évolution
    20 / Underworld 3 : Le Soulèvement des Lycans

    http://www.senscritique.com/top/Les_meilleurs_films_avec_Bill_Nighy/1067352
  • 20 Photo Gary Oldman

    Gary Oldman

    acteur, scénariste, réalisateur, producteur, artiste musical et auteur

    Moyenne : 7,3/10
    ----------------------------------------------------------------------------------9/10-------
    1 / The Dark Knight, le Chevalier Noir
    2 / Léon
    ----------------------------------------------------------------------------------8/10-------
    3 / La Planète des Singes : L'Affrontement
    4 / The Dark Knight Rises ✔
    5 / Batman Begins
    6 / Harry Potter et les Reliques de Mort : Partie 2 ✔
    7 / Le Cinquième Element
    8 / Harry Potter et la Coupe de Feu
    9 / Harry Potter et le Prisonnier d'Azkaban
    10 / True Romance
    11 / Des Hommes sans Loi
    ----------------------------------------------------------------------------------7/10-------
    12 / Dracula
    13 / JFK
    14 / Harry Potter et l'Ordre du Phénix ✔
    15 / Hannibal
    ----------------------------------------------------------------------------------6/10-------
    16 / RoboCop
    17 / Enfant 44
    18 / Le Livre d'Eli
    ----------------------------------------------------------------------------------5/10-------
    19 / La Taupe
    ----------------------------------------------------------------------------------4/10-------
    20 / Air Force One

    http://www.senscritique.com/top/Les_meilleurs_films_avec_Gary_Oldman/999654
  • 21 Photo Jim Carrey

    Jim Carrey

    artiste musical, producteur, créateur, acteur et scénariste

    Moyenne : 6,3/10
    --------------------------------------------------------------------------------10/10-------
    1 / The Truman Show
    2 / Eternal Sunshine of the Spotless Mind
    ----------------------------------------------------------------------------------8/10-------
    3 / Man on the Moon
    4 / The Majestic
    ----------------------------------------------------------------------------------7/10-------
    5 / Légendes Vivantes (caméo)
    6 / Dumb and Dumber
    7 / Dumb and Dumber De
    8 / The Mask
    9 / Kick-Ass 2 ✔
    ----------------------------------------------------------------------------------6/10-------
    10 / Bruce Tout-Puissant
    11 / Yes Man
    12 / Menteur, Menteur
    13 / Fous d'Irène
    14 / I Love you Phillip Morris
    15 / Pecan Pie (court-métrage)
    ----------------------------------------------------------------------------------5/10-------
    16 / Mr Popper et ses pingouins
    17 / Ace Ventura, détective chiens et chats
    ----------------------------------------------------------------------------------4/10-------
    18 / Batman Forever
    19 / The Bad Batch
    ----------------------------------------------------------------------------------2/10-------
    20 / Le Nombre 23

    http://www.senscritique.com/top/Les_meilleurs_films_avec_Jim_Carrey/999370
  • 22 Photo John Goodman

    John Goodman

    artiste musical, acteur et producteur

    Moyenne : 6,2/10
    -----------------------------------------------------------------------------------8/10-------
    1 / O'Brother ✔
    2 / The Big Lebowski
    3 / Arizona Junior
    4 / Argo
    5 / Barton Fink
    -----------------------------------------------------------------------------------7/10-------
    6 / 10 Cloverfield Lane
    7 / The Artist
    8 / Panic sur Florida Beach
    9 / Inside Llewyn Davis
    10 / Flight
    -----------------------------------------------------------------------------------6/10-------
    11 / Kong : Skull Island ✔
    12 / Atomic Blonde
    13 / Death Sentence
    14 / Speed Racer
    -----------------------------------------------------------------------------------5/10-------
    15 / Transformers : L'Âge de l'extinction (voix) ✔
    16 / Les Stagiaires
    17 / Very Bad Trip 3 ✔
    -----------------------------------------------------------------------------------4/10-------
    18 / Monuments Men
    -----------------------------------------------------------------------------------3/10-------
    19 / Transformers : The Last Knight (voix)
    20 / Evan tout-puissant

    https://www.senscritique.com/top/Les_meilleurs_films_avec_John_Goodman/1605198
  • 23 Photo Woody Harrelson

    Woody Harrelson

    acteur, producteur, scénariste et réalisateur

    Moyenne : 6,65/10
    ---------------------------------------------------------------------------------9/10------
    1 / No Country for Old Men
    ---------------------------------------------------------------------------------8/10------
    2 / 3 Billboards, les panneaux de la vengeance ✔
    3 / La Ligne rouge
    4 / La Planète des Singes : Suprématie
    5 / Larry Flynt
    ---------------------------------------------------------------------------------7/10------
    6 / Bienvenue à Zombieland
    7 / Hunger Games : L'Embrasement ✔
    8 / 2012
    9 / Sept Vies
    10 / Les Brasiers de la Colère
    ---------------------------------------------------------------------------------6/10------
    11 / Hunger Games : La Révolte, partie 2 ✔
    12 / Hunger Games
    13/ Hunger Games : La Révolte, partie 1 ✔
    14 / A Scanner Darkly
    15 / Insaisissables
    16 / Transsiberian
    17 / Tueurs nés
    ---------------------------------------------------------------------------------5/10------
    18 / Triple 9
    19 / Self Control
    ---------------------------------------------------------------------------------4/10------
    20 / Insaisissables

    http://www.senscritique.com/top/Les_meilleurs_films_avec_Woody_Harrelson/1051170
  • 24 Photo Alan Rickman

    Alan Rickman

    acteur, réalisateur et scénariste

    Moyenne : 7,16/10
    ----------------------------------------------------------------------------------9/10-------
    1 / Piège de cristal
    ----------------------------------------------------------------------------------8/10-------
    2 / Harry Potter et les Reliques de la Mort : 2ème partie ✔
    3 / Le Parfum, histoire d'un meurtrier
    4 / Harry Potter et la Coupe de feu
    5 / Harry Potter et le Prisonnier d'Azkaban
    6 / Harry Potter et les Reliques de la Mort : 1ère partie ✔
    7 / Harry Potter et la Chambre des secrets
    8 / Harry Potter à l'école des sorciers
    9 / Sweeney Todd, le diabolique barbier de Fleet Street
    ----------------------------------------------------------------------------------7/10-------
    10 / Le Majordome ✔
    11 / Harry Potter et l'Ordre du phénix ✔
    12 / Harry Potter et le Prince de sang-mêlé
    13 / Galaxy Quest
    14 / Robin des bois, prince des voleurs
    ----------------------------------------------------------------------------------6/10-------
    15 / Love Actually
    16 / H2G2 : Le Guide du voyageur galactique
    17 / Alice de l'autre côté du miroir (voix) ✔
    ----------------------------------------------------------------------------------5/10-------
    18 / Alice au pays des merveilles (voix)
    19 / Raison et Sentiments

    http://www.senscritique.com/top/Les_meilleurs_films_avec_Alan_Rickman/1110085
  • 25 Photo Leonardo DiCaprio

    Leonardo DiCaprio

    acteur, producteur, scénariste et créateur

    Moyenne : 8,05/10
    ----------------------------------------------------------------------------------9/10-------
    1 / Le Loup de Wall Street ✔
    2 / Les Infiltrés
    3 / Shutter Island
    4 / Arrête-moi si tu peux
    5 / Django Unchained
    6 / The Revenant ✔
    7 / Titanic
    ----------------------------------------------------------------------------------8/10-------
    8 / Inception
    9 / La Plage
    10 / Gangs of New York
    11 / Blood Diamond
    12 / Gatsby le Magnifique
    13 / Roméo + Juliette
    14 / Aviator
    ----------------------------------------------------------------------------------7/10-------
    15 / The Basketball Diaries
    16 / Gilbert Grape
    17 / Les Noces Rebelles
    18 / L'Homme au masque de fer
    ----------------------------------------------------------------------------------6/10-------
    19 / Mensonges d'État

    http://www.senscritique.com/top/Les_meilleurs_films_avec_Leonardo_Di_Caprio/999544
  • 26 Photo Owen Wilson

    Owen Wilson

    acteur, scénariste, producteur et artiste musical

    Moyenne : 5,68/10
    --------------------------------------------------------------------------------7/10-------
    1 / The Grand Budapest Hotel
    2 / La Famille Tenenbaum
    3 / Minuit à Paris
    4 / Mon beau-père et moi
    5 / La Vie aquatique
    --------------------------------------------------------------------------------6/10-------
    6 / Serial Noceurs
    7 / À bord du Darjeeling Limited
    8 / La Nuit au musée
    9 / La Nuit au musée : Le Secret des Pharaons
    10 / Inherent Vice
    11 / Mon beau-père, mes parents et moi
    12 / Mon beau-père et nous
    13 / Armageddon
    --------------------------------------------------------------------------------5/10-------
    14 / Zoolander
    15 /La Nuit au musée 2
    16 / Les Stagiaires
    17 / No Escape
    --------------------------------------------------------------------------------3/10-------
    18 / Zoolander 2
    --------------------------------------------------------------------------------2/10-------
    19 / Anaconda, le prédateur

    http://www.senscritique.com/top/Les_meilleurs_films_avec_Owen_Wilson/999153
  • 27 Photo Ben Stiller

    Ben Stiller

    acteur, producteur, réalisateur, scénariste, créateur, préface et artiste musical

    Moyenne : 6,06/10
    ----------------------------------------------------------------------------------7/10-------
    1 / Tonnerre sous les tropiques
    2 / La Famille Tenenbaum
    3 / La Légende de Ron Burgundy - Présentateur Vedette(caméo)
    4 / L'Empire du Soleil
    5 / Mon beau-père et moi
    6 / I'm Still Here
    7 / La Vie rêvée de Walter Mitty
    ----------------------------------------------------------------------------------6/10-------
    8 / La Nuit au musée
    9 / La Nuit au musée : Le Secret des Pharaons
    10 / Mon beau-père, mes parents et moi
    11 / Même pas mal ! (Dodgeball)
    12 / Mary à tout prix
    13 / Mon beau-père et nous
    ----------------------------------------------------------------------------------5/10-------
    14 / Zoolander
    15 / La Nuit au musée 2
    16 / Le Casse de Central Park
    17 / Voisins du troisième type
    ----------------------------------------------------------------------------------3/10-------
    18 / Zoolander 2

    http://www.senscritique.com/top/Les_meilleurs_films_avec_Ben_Stiller/999459
  • 28 Photo Christopher Lee

    Christopher Lee

    acteur, auteur et artiste musical

    Moyenne : 7,22/10
    ----------------------------------------------------------------------------------9/10-------
    1 / Le Seigneur des Anneaux : le Retour du roi ✔
    2 / Le Seigneur des Anneaux : Les Deux Tours
    3 / Le Seigneur des Anneaux : La Communauté de L'Anneau ✔
    4 / Star Wars : Episode III - La Revanche des Siths
    ----------------------------------------------------------------------------------8/10-------
    5 / Star Wars : Episode II - L'Attaque des Clones
    6 / Le Hobbit : Un Voyage Inattendu ✔
    7 / Lolita
    8 / Charlie et la Chocolaterie
    ----------------------------------------------------------------------------------7/10-------
    9 / Le Hobbit : La Bataille des 5 Armées ✔
    10 / Sleepy Hollow, la légende du cavalier sans tête
    11 / Hugo Cabret
    12 / Le Dieu d'osier
    13 / L'Homme au Pistolet d'Or
    ----------------------------------------------------------------------------------6/10-------
    14 / Gremlins 2 : La Nouvelle Génération
    15 / A la croisée des mondes : La Boussole d'or
    ----------------------------------------------------------------------------------5/10-------
    16 / Alice au pays des Merveilles (voix)
    17 / Dark Shadows
    18 / Police Academy 7 : Mission à Moscou

    http://www.senscritique.com/top/Les_meilleurs_films_avec_Christopher_Lee/999074
  • 29 Photo Ewan McGregor

    Ewan McGregor

    producteur, acteur, réalisateur, artiste musical, créateur et auteur

    Moyenne : 7,06/10
    --------------------------------------------------------------------------------9/10-------
    1 / Trainspotting
    2 / Star Wars : Épisode III - La Revanche des Sith
    --------------------------------------------------------------------------------8/10-------
    3 / La Chute du faucon noir
    4 / Star Wars : Épisode II - L'Attaque des clones
    5 / Star Wars : Épisode I - La Menace fantôme
    6 / Big Fish
    7 / Perfect Sense
    --------------------------------------------------------------------------------7/10-------
    8 / The Impossible
    9 / T2 : Trainspotting
    10 / Le Rêve de Cassandre
    11 / The Island
    12 / Une vie moins ordinaire
    --------------------------------------------------------------------------------6/10-------
    13 / The Ghost Writer
    14 / Moulin Rouge !
    15 / I Love You Phillip Morris
    16 / Albert à l'Ouest
    --------------------------------------------------------------------------------5/10-------
    17 / Anges & Démons
    18 / Jack le chasseur de géants

    http://www.senscritique.com/top/Les_meilleurs_films_avec_Ewan_Mc_Gregor/999477
  • 30 Photo Gérard Depardieu

    Gérard Depardieu

    artiste musical, producteur, acteur, auteur et réalisateur

    Moyenne : 6,11/10
    ----------------------------------------------------------------------------------8/10-------
    1 / Astérix et Obélix : Mission Cléopâtre ✔
    2 / Mesrine : 1ère Partie - L'Instinct de mort
    3 / L'Odysée de Pi
    ----------------------------------------------------------------------------------7/10-------
    4 / La Môme
    5 / Buffet Froid
    6 / À l'origine
    7 / Paris, je t'aime
    8 / L'Homme au masque de fer
    ----------------------------------------------------------------------------------6/10-------
    9 / Astérix et Obélix contre César
    10 / RRRrrrr !!!
    11 / 1492 : Christophe Colomb
    12 / Inspecteur la Bavure
    13 / Tais-toi !
    ----------------------------------------------------------------------------------5/10-------
    14 / Michou d'Auber
    15 / Les Enfants de Timpelbach
    16 / Babylon A.D.
    17 / Astérix aux jeux olympiques ✔
    ----------------------------------------------------------------------------------2/10-------
    18 / Astérix et Obélix : Au service de sa Majesté

    http://www.senscritique.com/top/Les_meilleurs_films_avec_Gerard_Depardieu/999382