Top Acteurs 2.0

Avatar Nathan56 Liste de

927 personnalités

par Nathan56

Classement des films par acteur,sans prise en compte des films d'animations, 5 films minimum par acteur. Ils sont classés selon le nombre de films visionnés. De plus les acteurs avec plus de 10 films sont classés dans un Top 10 selon la moyenne des films visionnés.

✔ signifie que j'ai vu le film au cinéma (soit dans les meilleures conditions possibles)

Mes autres listes :
http://www.senscritique.com/liste/Grands_Realisateurs_2_0/774965
https://www.senscritique.com/liste/Top_Actrices_2_0/1605223

Top 15 Acteurs (à partir de 10 films):
1° - Leonardo DiCaprio ...... (7,91/10)
2° - Viggo Mortensen ......... (7,9/10)
3° - Andy Serkis ................ (7,86/10)
4° - Rafe Spall ................... (7,85/10)6
5° - Sean Penn ................... (7,8/10)
6° - Brian Cox .................... (7,72/10)
7° - Clint Eastwood ............ (7,64/10)
8° - Orlando Bloom ............. (7,64/10)
9° - Tom Felton ................... (7,6/10)
10° - Al Pacino .................... (7,6/10)
11° - Michael Caine ........... (7,53/10)
12° - Frank Oz ..................... (7,5/10)
13° - Pete Postlethwaite ....... (7,5/10)
14° - Ian Holm ....................... (7,4/10)
15° - Matthew McConaughey (7,33/10)

Flop 15 Acteurs
1° - Ramzy Bédia ................. (3,45/10)
2° - Eric Judor......................... (3,8/10)
3° - José Garcia .................. (4,55/10)
4° - Eriq Ebouaney ............... (5/10)
5° - Kad Merad .................... (5,1/10)
6° - Christian Clavier ........... (5,08/10)
7° - Etienne Chicot ............. (5,1/10)
8° - Jean-Paul Rouve ........ (5,14/10)
9 ° - Arsène Mosca ............. (5,27/10)
10° - Seann William Scott ...... (5,29/10)
11° - Bill Pullman .................... (5,36/10)
12° - Francois Damiens ......... (5,43/10)
13° - Omar Sy ...................... (5,48/10)
14° - Michel Galabru ............ (5,5/10)
15° - Dwayne Johnson .......... (5,5/10)

Trier par : Tri par défaut
  • Tri par défaut
  • Derniers ajouts
  • Ordre alphabétique
Croissant
  • Croissant
  • Décroissant
  • 1 Photo Samuel L. Jackson

    Samuel L. Jackson

    acteur, producteur, préfacier et artiste musical

    Moyenne : 6,88/10
    ----------------------------------------------------------------------------------9/10-------
    1 / Jurassic Park ✔
    2 / Star Wars Episode III : La Revanche des Siths
    3 / Kingsman : Services secrets ✔
    4 / Django Unchained
    5 / Les 8 Salopards ✔
    6 / Kill Bill : Volume 1
    7 / Kill Bill : Volume 2
    ----------------------------------------------------------------------------------8/10-------
    8 / Avengers : Endgame ✔
    9 / Une Journée en Enfer
    10 / Incassable ✔
    11 / Pulp Fiction
    12 / Star Wars Episode I : La Menace Fantôme
    13 / Avengers : Infinity War ✔
    14 / Star Wars Episode II : L'Attaque des Clones
    15 /True Romance
    16 / Do The Right Thing
    ----------------------------------------------------------------------------------7/10-------
    17 /Jackie Brown
    18 / Glass ✔
    19 / Iron Man
    20 / Avengers : L'Ère d'Ultron ✔
    21 / Avengers ✔
    22 / Spider-Man : Far From Home ✔
    23 / Captain America : Le Soldat de l'Hiver ✔
    24 / Black Snake Moan
    25 / Chambre 1408
    ----------------------------------------------------------------------------------6/10-------
    26 / RoboCop
    27 / Double Mise
    28 / Kong : Skull Island ✔
    29 / Captain Marvel ✔
    30 / Jumper
    31 / Captain America : First Avenger ✔
    32 / Un Prince à New-York
    ----------------------------------------------------------------------------------5/10-------
    33 / Thor ✔
    34 / Iron Man 2
    35 / Miss Peregrine et les Enfants particuliers
    36 / Tarzan
    37 / Des Serpents dans l'Avion
    38 / Oldboy (US)
    39 / Very Bad Cops
    ----------------------------------------------------------------------------------4/10-------
    40 / xXx
    ----------------------------------------------------------------------------------3/10-------
    41 / xXx : The Next Level

    http://www.senscritique.com/top/Les_meilleurs_films_avec_Samuel_L_Jackson/999573
  • 2 Photo Brad Pitt

    Brad Pitt

    acteur, producteur, postface et artiste musical

    Moyenne : 7,39/10
    --------------------------------------------------------------------------------10/10-------
    1 / Seven
    ----------------------------------------------------------------------------------9/10-------
    2 / Fight Club
    4 / Thelma et Louise ✔
    5 / Entretien avec un Vampire
    ----------------------------------------------------------------------------------8/10-------
    3 / L'Etrange Histoire de Benjamin Button ✔
    6 / Inglorious Basterds
    7 / Ad Astra ✔
    8 / Once Upon a Time in... Hollywood ✔
    9 / L'Armée des 12 Singes
    10 / Snatch
    11 / L'Assassinat de Jesse James par le lâche Robert Ford
    12 / The Big Short : Le Casse du siècle
    13 / Sleepers
    14 / 12 Years a Slave
    15 / Troie
    16 / Fury
    17 / True Romance
    18 / Babel
    19 / Dans la Peau de John Malkovich
    ----------------------------------------------------------------------------------7/10-------
    20 / World War Z ✔
    21 / Alliés
    22 / Le Stratège
    23 / Burn After Reading
    24 / Ocean's Eleven
    25 / Et au Milieu coule une Rivière
    26 / Confessions d'un homme dangereux (caméo)
    27 / Légendes d'Automne
    28 / Sept Ans au Tibet
    ----------------------------------------------------------------------------------6/10-------
    29 / Rencontre avec Joe Black
    30 / Deadpool 2 (caméo)
    31 / Ocean's 13
    32 / Mr. undefinedamp;amp; Mrs Smith
    33 / Ocean's Twelve
    34 / Spy game, jeu d'espions
    35 / Ennemis Rapprochés
    ----------------------------------------------------------------------------------4/10-------
    36 / Cartel

    http://www.senscritique.com/top/Les_meilleurs_films_avec_Brad_Pitt/999644
  • 3 Photo Robert De Niro

    Robert De Niro

    acteur, producteur, réalisateur et artiste musical

    Moyenne : 7,25/10
    ---------------------------------------------------------------------------------10/10-------
    1 / Voyage au bout de l'enfer ✔
    ----------------------------------------------------------------------------------9/10-------
    2 / Les Affranchis
    3 / Joker ✔
    4 / Il était une fois en Amérique
    5 / Casino
    6 / Taxi Driver
    ----------------------------------------------------------------------------------8/10-------
    7 / Heat
    8 / The Irishman
    9 / Brazil
    10 / Sleepers
    11 / Le Parrain : 2e Partie
    12 / Angel Heart
    13 / Raging Bull
    14 / Les Incorruptibles
    15 / La Valse des Pantins
    ----------------------------------------------------------------------------------7/10-------
    16 / Jackie Brown
    17 / Les Nerfs à vif
    18 / Copland
    19 / 1900
    20 / Happiness Therapy
    21 / Mon beau-père et moi
    22 / Mission
    23 / Machete
    ----------------------------------------------------------------------------------6/10-------
    24 / Limitless
    25 / Hands of Stone
    26 / Public Enemies
    27 / Frankenstein
    28 / Raisons d'état
    29 / Midnight Run
    30 / Mon beau-père, mes parents et moi
    31 / American Bluff ✔
    32 / Mon beau-père et nous
    33 / Mean Streets
    34 / Joy ✔
    35 / Malavita
    ----------------------------------------------------------------------------------5/10-------
    36 / Killer Elite

    http://www.senscritique.com/top/Les_meilleurs_films_avec_Robert_de_Niro/999666
  • 4 Photo Bruce Willis

    Bruce Willis

    acteur, producteur, scénariste et artiste musical

    Moyenne : 6,56/10
    ----------------------------------------------------------------------------------9/10-------
    1 / Piège de Cristal
    ----------------------------------------------------------------------------------8/10-------
    2 / L'Armée des 12 Singes
    3 / Une Journée en Enfer
    4 / Incassable ✔
    5 / Pulp Fiction
    6 / Sin City
    7 / Le Cinquième Elément
    8 / Moonrise Kingdom
    9 / La Mort vous va si bien
    ----------------------------------------------------------------------------------7/10-------
    10 / Sixième Sens
    11 / Brooklyn Affairs ✔
    12 / Looper
    13 / Sin City : J'ai Tué pour Elle
    14 / Groom Service
    15 / Le Dernier Samaritain
    16 / Glass ✔
    17 / Slevin
    18 / Planète Terreur
    19 / I'm Still Here
    -----------------------------------------------------------------------------------6/10-------
    20 / Split (caméo) ✔
    21 / 58 Minutes pour Vivre
    22 / Le Bûcher des vanités
    23 / Mon Voisin le Tueur
    24 / 16 Blocs
    25 / Les Larmes du Soleil
    26 / Armaggedon
    ----------------------------------------------------------------------------------5/10-------
    27 / Red
    28 / Clones
    29 / Mon Voisin le Tueur 2
    30 / Die Hard 4 : Retour en Enfer
    ----------------------------------------------------------------------------------4/10-------
    31 / Die Hard : Belle Journée pour Mourir
    32 / Top Cops

    http://www.senscritique.com/top/Les_meilleurs_films_avec_Bruce_Willis/999639
  • 5 Photo Matt Damon

    Matt Damon

    acteur, producteur, scénariste et créateur

    Moyenne : 6,66/10
    ----------------------------------------------------------------------------------10/10------
    1 / Interstellar ✔
    ----------------------------------------------------------------------------------9/10-------
    2 / Les Infiltrés
    3 / Il faut sauver le soldat Ryan
    ----------------------------------------------------------------------------------8/10-------
    4 / Will Hunting
    5 / La Mémoire dans la peau
    6 / Le Mans 66 ✔
    7 / Seul sur Mars ✔
    8 / La Mort dans la peau
    9 / La Vengeance dans la peau
    10 / True Grit
    ----------------------------------------------------------------------------------7/10-------
    11 / Le Talentueux Mr. Ripley
    12 / Ocean's Eleven
    13 / Confessions d'un homme dangereux (caméo)
    14 / Thor : Ragnarok (caméo)
    15 / Les Joueurs
    16 / Invictus
    ----------------------------------------------------------------------------------6/10-------
    17 / Deadpool 2 (caméo)
    18 / Ocean's 13
    19 / Raisons d'état
    20 / Ocean's Twelve
    21 / Gerry
    22 / Bienvenue à Suburbicon
    23 / La Grande Muraille
    24 / Green Zone
    25 / Downsizing
    ----------------------------------------------------------------------------------5/10-------
    26 / Elysium
    27 / Jason Bourne
    28 / Sex Trip
    29 / Deux en un
    30 / Contagion
    ----------------------------------------------------------------------------------4/10-------
    31 / L'Agence
    32 / Monuments Men

    http://www.senscritique.com/top/Les_meilleurs_films_avec_Matt_Damon/999483
  • 6 Photo Johnny Depp

    Johnny Depp

    acteur, producteur, réalisateur, scénariste, auteur et artiste musical

    Moyenne : 6,59/10
    ----------------------------------------------------------------------------------8/10-------
    1 / Platoon
    2 / Edward aux mains d'argent
    3 / Sweeney Todd, le diabolique barbier de Fleet Street
    4 / Pirates des Caraïbes : Le Secret du coffre maudit
    5 / Pirates des Caraïbes : La Malédiction du Black Pearl
    ----------------------------------------------------------------------------------7/10-------
    6 / 21 Jump Street (caméo)
    7 / Ed Wood
    8 / Charlie et la Chocolaterie
    9 / Les Animaux fantastiques ✔
    10 / Blow
    11 / Sleepy Hollow, la légende du cavalier sans tête
    12 / Las Vegas Parano
    13 / Gilbert Grape
    14 / Les Griffes de la nuit
    15 / Pirates des Caraïbes : Jusqu'au bout du monde
    ----------------------------------------------------------------------------------6/10-------
    16 / Public Enemies
    17 / Lone Ranger : Naissance d'un héros
    18 / Les Animaux fantastiques : Les Crimes de Grindelwald ✔
    19 / Pirates des Caraïbes : La Vengeance de Salazar ✔
    20 / Pirates des Caraïbes : La Fontaine de Jouvence ✔
    21 / Neverland
    22 / L'Imaginarium du Docteur Parnassus
    23 / Le Crime de l'Orient-Express
    24 / Chocolat
    25 / From Hell
    26 / Alice de l'autre côté du miroir ✔
    ----------------------------------------------------------------------------------5/10-------
    27 / Desperado 2 : Il était une fois au Mexique
    28 / Alice au pays des merveilles
    29 / Dark Shadows

    http://www.senscritique.com/top/Les_meilleurs_films_avec_Johnny_Depp/999621
  • 7 Photo Liam Neeson

    Liam Neeson

    acteur, réalisateur et artiste musical

    Moyenne : 6,34/10
    ----------------------------------------------------------------------------------9/10-------
    1 / La Liste de Schindler
    ----------------------------------------------------------------------------------8/10-------
    2 / The Dark Knight Rises ✔
    3 / Batman Begins
    4 / Gangs of New York
    5 / Star Wars : Épisode I - La Menace fantôme
    6 / Excalibur ✔
    7 / Quelques minutes après minuit (voix)
    ----------------------------------------------------------------------------------7/10-------
    8 / Taken
    9 / Le Monde de Narnia : Chapitre 1 (voix)
    10 / Mission
    11 / Silence
    12 / La Ballade de Buster Scruggs
    13 / Le Territoire des Loups
    14 / Légendes Vivantes (caméo)
    ----------------------------------------------------------------------------------6/10-------
    15 / Les Veuves
    16 / Darkman
    17 / Love Actually
    18 / Ted 2 (caméo)
    19 / Non-Stop
    20 / Albert à l'Ouest
    21 / Kindgom of Heaven
    ----------------------------------------------------------------------------------5/10-------
    22 / Le Monde de Narnia : Chapitre 2 (voix)
    23 / Le Monde de Narnia : Chapitre 3 (voix) ✔
    24 / Men in Black : International
    25 / Le Choc des Titans
    26 / La Colère des Titans ✔
    27 / L'Agence tous risques
    ----------------------------------------------------------------------------------4/10-------
    28 / Taken 2
    ----------------------------------------------------------------------------------3/10-------
    29 / Taken 3

    http://www.senscritique.com/top/Les_meilleurs_films_avec_Liam_Neeson/999420
  • 8 Photo Gérard Depardieu

    Gérard Depardieu

    acteur, producteur, réalisateur, artiste musical et auteur

    Moyenne : 6,26/10
    ----------------------------------------------------------------------------------8/10-------
    1 / Astérix et Obélix : Mission Cléopâtre ✔
    2 / Cyrano de Bergerac
    3 / Jean de Florette
    4 / Les Valseuses
    5 / Mesrine : 1ère Partie - L'Instinct de mort
    6 / L'Odysée de Pi
    7 / Hamlet
    ----------------------------------------------------------------------------------7/10-------
    8 / La Môme
    9 / Buffet Froid
    10 / 1900
    11 / À l'origine
    12 / Paris, je t'aime
    13 / L'Homme au masque de fer
    ----------------------------------------------------------------------------------6/10-------
    14 / Le Dernier Métro
    15 / 1492 : Christophe Colomb
    16 / Préparez vos mouchoirs
    17 / Bon Voyage
    18 / Astérix et Obélix contre César
    19 / Le Choix des armes
    20 / RRRrrrr !!!
    21 / Inspecteur la Bavure
    22 / Tais-toi !
    ----------------------------------------------------------------------------------5/10-------
    23 / Babylon A.D.
    24 / Michou d'Auber
    25 / Les Enfants de Timpelbach
    26 / Astérix aux jeux olympiques ✔
    ----------------------------------------------------------------------------------2/10-------
    27 / Astérix et Obélix : Au service de sa Majesté
    28 / Alad'2

    http://www.senscritique.com/top/Les_meilleurs_films_avec_Gerard_Depardieu/999382
  • 9 Photo Tom Cruise

    Tom Cruise

    acteur, producteur, scénariste et artiste musical

    Moyenne : 7,04/10
    ----------------------------------------------------------------------------------9/10-------
    1 / Entretien avec un vampire
    ----------------------------------------------------------------------------------8/10-------
    2 / Mission : Impossible - Fallout ✔
    3 / Mission : Impossible - Rogue Nation ✔
    4 / Magnolia
    5 / Rain Man
    6 / La Guerre des mondes
    7 / Collateral
    8 / Minority Report
    9 / Barry Seal : American Traffic
    ----------------------------------------------------------------------------------7/10-------
    10 / Edge of Tomorrow
    11 / Eyes Wide Shut
    12 / Tonnerre sous les tropiques
    13 / Mission : Impossible
    14 / Walkyrie
    15 / Le Dernier Samouraï
    16 / Mission : Impossible - Protocole fantôme
    17 / Mission : Impossible III
    18 / Vanilla Sky
    19 / Outsiders
    20 / Jerry Maguire
    21 / Né un 4 Juillet
    ----------------------------------------------------------------------------------6/10-------
    22 / La Firme
    23 / Top Gun
    24 / Mission : Impossible 2
    25 / Jack Reacher
    26 / Oblivion
    ----------------------------------------------------------------------------------5/10-------
    27 / Legend
    28 / La Momie

    http://www.senscritique.com/top/Les_meilleurs_films_avec_Tom_Cruise/999026
  • 10 Photo Nicolas Cage

    Nicolas Cage

    acteur, producteur, réalisateur et artiste musical

    Moyenne : 6,04/10
    ----------------------------------------------------------------------------------8/10-------
    1 / Lord of War
    2 / Arizona Junior
    3 / Snake Eyes
    4 / Volte/face
    ----------------------------------------------------------------------------------7/10-------
    5 / Birdy
    6 / Leaving Las Vegas
    7 / Kick-Ass
    8 / Mandy
    9 / Snowden
    10 / Windtalkers, les messagers du vent
    11 / Les Associés
    12 / Adaptation.
    ----------------------------------------------------------------------------------6/10-------
    13 / Cotton Club
    14 / Benjamin Gates et le Trésor des Templiers
    15 / Benjamin Gates et le Livre des secrets
    16 / Sailor et Lula
    17 / Les Ailes de l'enfer
    18 / Rock
    19 / Family Man
    20 / 60 secondes chrono
    ----------------------------------------------------------------------------------5/10-------
    21 / The Weather Man
    22 / World Trade Center
    ----------------------------------------------------------------------------------4/10-------
    23 / Ghost Rider
    24 / L'Apprenti Sorcier
    25 / Bangkok Dangerous
    ----------------------------------------------------------------------------------3/10-------
    26 / Prédictions
    ----------------------------------------------------------------------------------2/10-------
    27 / Ghost Rider : L'Esprit de vengeance

    http://www.senscritique.com/top/Les_meilleurs_films_avec_Nicolas_Cage/999665
  • 11 Photo Willem Dafoe

    Willem Dafoe

    acteur, scénariste, producteur et artiste musical

    Moyenne : 6,59/10
    --------------------------------------------------------------------------------8/10-------
    1 / Platoon
    2 / Spider-Man
    3 / Inside Man, l'homme de l'intérieur
    4 / Aviator
    5 / Mississippi Burning
    --------------------------------------------------------------------------------7/10-------
    6 / The Grand Budapest Hotel
    7 / Le Patient anglais
    8 / Spider-Man 2
    9 / Spider-Man 3
    10 / American Psycho
    11 / Nymphomaniac : Volume 2
    12 / Les Brasiers de la Colère
    13 / La Vie aquatique
    14 / The Lighthouse
    15 / Brooklyn Affairs ✔
    16 / Togo
    17 / Paris, je t'aime
    --------------------------------------------------------------------------------6/10-------
    18 / Aquaman
    19 / eXistenZ
    20 / La Grande Muraille
    21 / Sailor et Lula
    22 / Le Crime de l'Orient-Express
    23 / Le Chasseur
    --------------------------------------------------------------------------------5/10-------
    24 / Desperado 2 : Il était une fois au Mexique
    25 / John Carter (voix)
    26 / John Wick
    --------------------------------------------------------------------------------3/10-------
    27 / XXX 2 : The Next Level

    http://www.senscritique.com/top/Les_meilleurs_films_avec_Willem_Dafoe/999046
  • 12 Photo James Franco

    James Franco

    acteur, réalisateur, producteur, scénariste, créateur, auteur et préfacier

    Moyenne : 6,15/10
    ----------------------------------------------------------------------------------8/10-------
    1 / La Planète des singes : Les Origines ✔
    2 / Spider-Man
    3 / 11.22.63 (Série)
    4 / The Deuce (Série)
    ----------------------------------------------------------------------------------7/10-------
    5 / The Disaster Artist
    6 / An American Crime
    7 / Spider-Man 2
    8 / Spider-Man 3
    9 / C'est la fin
    10 / La Ballade de Buster Scruggs
    11 / The Iceman
    12 / Harvey Milk
    13 / 127 Heures
    ---------------------------------------------------------------------------------6/10--------
    14 / The Green Hornet ✔
    15 / L'Interview qui tue !
    16 / True Story
    17 / Le Monde fantastique d'Oz
    18 / Mange, Prie, Aime
    19 / Palo Alto
    20 / The Holiday (caméo)
    ----------------------------------------------------------------------------------5/10-------
    21 / Délire Express
    22 / Votre Majesté
    23 / Homefront ✔
    24 / Every Thing will be Fine
    25 / Spring Breakers ✔
    ----------------------------------------------------------------------------------3/10-------
    26 / Alien : Covenant (caméo) ✔

    http://www.senscritique.com/top/Les_meilleurs_films_avec_James_Franco/999439
  • 13 Photo Morgan Freeman

    Morgan Freeman

    acteur, producteur, réalisateur et artiste musical

    Moyenne : 6,58/10
    --------------------------------------------------------------------------------10/10------
    1 / Seven
    ----------------------------------------------------------------------------------9/10-------
    2 / The Dark Knight, le Chevalier noir
    3 / Les Evadés
    4 / Impitoyable
    ----------------------------------------------------------------------------------8/10-------
    5 / The Dark Knight Rises ✔
    6 / Batman Begins
    7 / Million Dollar Baby
    ----------------------------------------------------------------------------------7/10-------
    8 / Slevin
    9 / Invictus
    10 / Wanted : Choisis ton destin
    11 / Robin des bois, prince des voleurs
    12 / Bruce tout-puissant
    13 / Gone Baby Gone
    ----------------------------------------------------------------------------------6/10-------
    14 / Amistad
    15 / Ted 2
    16 / Sans plus attendre
    17 / Le Bûcher des vanités
    18 / Une vie inachevée
    19 / Oblivion
    20 / Insaisissables
    ----------------------------------------------------------------------------------5/10-------
    21 / Red
    22 / Lucy
    23 / Danny the Dog
    ----------------------------------------------------------------------------------4/10-------
    24 / Insaisissables 2
    25 / Deep Impact
    ----------------------------------------------------------------------------------3/10-------
    26 / Evan tout-puissant

    http://www.senscritique.com/top/Les_meilleurs_films_avec_Morgan_Freeman/999578
  • 14 Photo Woody Harrelson

    Woody Harrelson

    acteur, réalisateur, scénariste et producteur

    Moyenne : 6,62/10
    ---------------------------------------------------------------------------------9/10------
    1 / True Detective : Saison 1 (Série)
    2 / No Country for Old Men
    ---------------------------------------------------------------------------------8/10------
    3 / 3 Billboards, les panneaux de la vengeance ✔
    4 / La Ligne rouge
    5 / La Planète des Singes : Suprématie
    6 / Larry Flynt
    ---------------------------------------------------------------------------------7/10------
    7 / Bienvenue à Zombieland
    8 / Hunger Games : L'Embrasement ✔
    9 / 2012
    10 / Sept Vies
    11 / Les Brasiers de la Colère
    12 / Solo : A Star Wars Story
    ---------------------------------------------------------------------------------6/10------
    13 / Hunger Games : La Révolte, partie 2 ✔
    14 / Hunger Games
    15 / Retour à Zombieland
    16 / Hunger Games : La Révolte, partie 1✔
    17 / A Scanner Darkly
    18 / Midway
    19 / Defendor
    20 / Insaisissables
    21 / Transsiberian
    22 / Tueurs nés
    ---------------------------------------------------------------------------------5/10------
    23 / Triple 9
    24 / Self Control
    25 / Venom
    ---------------------------------------------------------------------------------4/10------
    26 / Insaisissables 2

    http://www.senscritique.com/top/Les_meilleurs_films_avec_Woody_Harrelson/1051170
  • 15 Photo Christian Bale

    Christian Bale

    acteur, producteur et artiste musical

    Moyenne : 6,83/10
    ----------------------------------------------------------------------------------9/10-------
    1 / The Dark Knight, le Chevalier Noir
    2 / Le Prestige ✔
    ----------------------------------------------------------------------------------8/10-------
    3 / The Dark Knight Rises ✔
    4 / Batman Begins
    5 / Le Mans 66 ✔
    6 / The Big Short : Le Casse du siècle
    7 / Le Nouveau Monde
    8 / 3h10 pour Yuma
    ----------------------------------------------------------------------------------7/10-------
    9 / Vice
    10 / Hostiles
    11 / Exodus : Gods and Kings
    12 / American Psycho
    13 / Les Quatre Filles du docteur March
    14 / Les Brasiers de la Colère
    15 / L'Empire du Soleil
    ----------------------------------------------------------------------------------6/10-------
    16 / Sacrifices of War
    17 / Public Enemies
    18 / Le Règne du Feu
    19 / Mowgli : La Légende de la jungle (voix)
    20 / Fighter
    21 / American Bluff ✔
    22 / The Machinist
    23 / Equilibrium
    ----------------------------------------------------------------------------------5/10-------
    24 / Terminator : Renaissance
    ----------------------------------------------------------------------------------4/10-------
    25 / Knight of Cups

    http://www.senscritique.com/top/Les_meilleurs_films_avec_Christian_Bale/999647
  • 16 Photo Harrison Ford

    Harrison Ford

    acteur et producteur

    Moyenne : 6,88/10
    ----------------------------------------------------------------------------------9/10-------
    1 / Blade Runner 2049 ✔
    ----------------------------------------------------------------------------------8/10-------
    2 / Apocalypse Now
    3 / Star Wars : Épisode V - L'Empire contre-attaque
    4 / Star Wars : Épisode VI - Le Retour du Jedi
    5 / Indiana Jones et la Dernière Croisade
    6 / Les Aventuriers de l'arche perdue
    7 / Star Wars : Épisode IV - Un nouvel espoir
    8 / Indiana Jones et le Temple maudit
    9 / L'Appel de la Forêt ✔
    ----------------------------------------------------------------------------------7/10-------
    10 / Star Wars : Le Réveil de la Force ✔
    11 / Mosquito Coast
    12 / Blade Runner
    13 / Conversation secrète
    14 / Le Fugitif
    15 / Star Wars : L'Ascension de Skywalker ✔
    16 / American Graffiti
    17 / Légendes Vivantes
    ----------------------------------------------------------------------------------6/10-------
    18 / L'Ouragan vient de Navarone
    19 / La Stratégie Ender
    20 / Ennemis Rapprochés
    21 / Indiana Jones et le Royaume du crâne de cristal
    22 / Apparences
    ----------------------------------------------------------------------------------5/10-------
    23 / Cowboys & Envahisseurs
    ----------------------------------------------------------------------------------4/10-------
    24 / 6 jours 7 nuits
    25 / Air Force One

    http://www.senscritique.com/top/Les_meilleurs_films_avec_Harrison_Ford/999668
  • 17 Photo Hugh Jackman

    Hugh Jackman

    acteur, producteur, artiste musical et préfacier

    Moyenne : 6,28/10
    ----------------------------------------------------------------------------------9/10-------
    1 / Le Prestige ✔
    ----------------------------------------------------------------------------------8/10-------
    2 / X-Men : Days of Future Past ✔
    3 / Prisoners
    4 / X-Men : Le Commencement ✔
    ----------------------------------------------------------------------------------7/10-------
    5 / Logan
    6 / Scoop
    7 / X-Men
    8 / X-Men 2
    9 / Wolverine : Le Combat de l'immortel ✔
    10 / Eddie the Eagle
    11 / The Fountain
    ----------------------------------------------------------------------------------6/10-------
    12 / The Front Runner
    13 / La Nuit au musée : Le Secret des Pharaons
    14 / X-Men : Apocalypse ✔
    15 / Real Steel
    16 / X-Men : L'Affrontement final
    17 / Chappie
    18 / Les Misérables
    ----------------------------------------------------------------------------------5/10-------
    19 / Australia
    20 / Pan
    21 / The Greatest Showman ✔
    22 / X-Men Origins : Wolverine
    23/ Opération Espadon
    24 / Van Helsing
    -----------------------------------------------------------------------------------3/10-------
    25 / My Movie Project

    http://www.senscritique.com/top/Les_meilleurs_films_avec_Hugh_Jackman/999397
  • 18 Photo Owen Wilson

    Owen Wilson

    acteur, producteur, scénariste et artiste musical

    Moyenne : 5,76/10
    --------------------------------------------------------------------------------7/10-------
    1 / The Grand Budapest Hotel
    2 / Disjoncté
    3 / La Famille Tenenbaum
    4 / Minuit à Paris
    5 / Mon beau-père et moi
    6 / Tête brûlée
    7 / La Vie aquatique
    --------------------------------------------------------------------------------6/10-------
    8 / Serial Noceurs
    9 / À bord du Darjeeling Limited
    10 / La Nuit au musée
    11 / ShanghaI Kid
    12 / La Nuit au musée : Le Secret des Pharaons
    13 / Inherent Vice
    14 / Mon beau-père, mes parents et moi
    15 / Mon beau-père et nous
    16 / Armageddon
    --------------------------------------------------------------------------------5/10-------
    17 / Shanghaï Kid 2
    18 / Le tour du monde en 80 jours
    19 / Zoolander
    20 /La Nuit au musée 2
    21 / Les Stagiaires
    22 / No Escape
    --------------------------------------------------------------------------------4/10-------
    23 / Espion et demi
    --------------------------------------------------------------------------------3/10-------
    24 / Zoolander 2
    --------------------------------------------------------------------------------2/10-------
    25 / Anaconda, le prédateur

    http://www.senscritique.com/top/Les_meilleurs_films_avec_Owen_Wilson/999153
  • 19 Photo Ewan McGregor

    Ewan McGregor

    acteur, réalisateur, producteur, créateur, artiste musical et auteur

    Moyenne : 6,87/10
    --------------------------------------------------------------------------------9/10-------
    1 / Trainspotting
    2 / Star Wars : Épisode III - La Revanche des Sith
    --------------------------------------------------------------------------------8/10-------
    3 / La Chute du faucon noir
    4 / Star Wars : Épisode II - L'Attaque des clones
    5 / Star Wars : Épisode I - La Menace fantôme
    6 / Big Fish
    7 / Perfect Sense
    --------------------------------------------------------------------------------7/10-------
    8 / The Impossible
    9 / Doctor Sleep ✔
    10 / Fargo : Saison 3 (Série)
    11 / T2 : Trainspotting
    12 / Le Rêve de Cassandre
    13 / The Island
    14 / Une vie moins ordinaire
    --------------------------------------------------------------------------------6/10-------
    15 / The Ghost Writer
    16 / Moulin Rouge !
    17 / Petits meurtres entre amis
    18 / I Love You Phillip Morris
    19 / La Belle et la Bête
    20 / Albert à l'Ouest
    --------------------------------------------------------------------------------5/10-------
    21 / Birds of Prey (et la fantabuleuse histoire de Harley Quinn) ✔
    22 / Anges & Démons
    23 / Jack le chasseur de géants

    http://www.senscritique.com/top/Les_meilleurs_films_avec_Ewan_Mc_Gregor/999477
  • 20 Photo Jim Carrey

    Jim Carrey

    acteur, producteur, scénariste, créateur et artiste musical

    Moyenne : 6,25/10
    --------------------------------------------------------------------------------10/10-------
    1 / The Truman Show
    2 / Eternal Sunshine of the Spotless Mind
    ----------------------------------------------------------------------------------8/10-------
    3 / Man on the Moon
    4 / The Majestic
    ----------------------------------------------------------------------------------7/10-------
    5 / The Mask
    6 / Disjoncté
    7 / Légendes Vivantes (caméo)
    8 / Dumb and Dumber
    9 / Dumb and Dumber De
    10 / Kick-Ass 2 ✔
    ----------------------------------------------------------------------------------6/10-------
    11 / Kidding (Série)
    12 / Bruce Tout-Puissant
    13 / Yes Man
    14 / Menteur, Menteur
    15 / Fous d'Irène
    16 / I Love you Phillip Morris
    17 / Pecan Pie (court-métrage)
    ----------------------------------------------------------------------------------5/10-------
    18 / Ace Ventura en Afrique
    19 / Sonic, le film
    20 / Mr Popper et ses pingouins
    21 / Ace Ventura, détective chiens et chats
    ----------------------------------------------------------------------------------4/10-------
    22 / Batman Forever
    23 / The Bad Batch
    ----------------------------------------------------------------------------------2/10-------
    24 / Le Nombre 23

    http://www.senscritique.com/top/Les_meilleurs_films_avec_Jim_Carrey/999370
  • 21 Photo Mark Wahlberg

    Mark Wahlberg

    acteur, producteur, créateur et artiste musical

    Moyenne : 6,38/10
    ----------------------------------------------------------------------------------9/10-------
    1 / Les Infiltrés
    2 / Boogie Nights
    ----------------------------------------------------------------------------------8/10-------
    3 / Prisoners
    4 / La Nuit nous appartient
    5 / The Yards
    ----------------------------------------------------------------------------------7/10-------
    6 / Du sang et des larmes
    7 / The Basketball Diaries
    8 / No Pain No Gain ✔
    9 / Lovely Bones
    10 / Tout l'argent du monde
    ----------------------------------------------------------------------------------6/10-------
    11 / Shooter, tireur d'élite
    12 / La Planète des singes
    13 / Ted
    14 / Ted 2
    15 / Fighter
    16 / Braquage à l'italienne
    17 / Very Bad Dads
    18 / Phénomènes
    19 / En Pleine tempête
    20 / 2 Guns
    ----------------------------------------------------------------------------------5/10-------
    21 / Transformers : L'Âge de l'extinction ✔
    22 / Very Bad Cops
    ----------------------------------------------------------------------------------3/10-------
    23 / Transformers : The Last Knight
    24 / Max Payne

    http://www.senscritique.com/top/Les_meilleurs_films_avec_Mark_Wahlberg/999467
  • 22 Photo Jude Law

    Jude Law

    acteur, producteur et réalisateur

    Moyenne : 6,57/10
    ----------------------------------------------------------------------------------8/10-------
    1 / Stalingrad ✔
    2 / Bienvenue à Gattaca
    3 / Sherlock Holmes
    4 / Aviator
    ----------------------------------------------------------------------------------7/10-------
    5 / The Grand Budapest Hotel
    6 / Le Talentueux Mr. Ripley
    7 / Retour à Cold Mountain
    8 / Les Sentiers de la Perdition
    9 / Sherlock Holmes : Jeu d'Ombres
    10 / A.I. Intelligence Artificielle
    11 / Hugo Cabret
    ----------------------------------------------------------------------------------6/10-------
    12 / Les Animaux fantastiques : Les Crimes de Grindelwald ✔
    13 / Un jour de pluie à New-York ✔
    14 / Anna Karénine
    15 / Captain Marvel ✔
    16 / Le Roi Arthur : La Légende d'Excalibur
    17 / The Holiday
    18 / Closer, entre adultes consentants
    19 / L'Imaginarium du Docteur Parnassus
    20 / eXistenz
    ----------------------------------------------------------------------------------5/10-------
    21 / My Blueberry Nights
    22 / Spy
    23 / Contagion

    http://www.senscritique.com/top/Les_meilleurs_films_avec_Jude_Law/999465
  • 23 Photo Robert Downey Jr.

    Robert Downey Jr.

    acteur, producteur, scénariste et artiste musical

    Moyenne : 6,74/10
    ----------------------------------------------------------------------------------8/10-------
    1 / Avengers : Endgame ✔
    2 / Zodiac
    3 / Avengers : Infinity War ✔
    4 / Sherlock Holmes
    ----------------------------------------------------------------------------------7/10-------
    5 / Iron Man
    6 / Captain America : Civil War ✔
    7 / Avengers : L'Ère d'Ultron ✔
    8 / Avengers ✔
    9 / Tonerre sous les Tropiques
    10 / Chaplin
    11 / Kiss Kiss Bang Bang
    12 / Le Juge
    13 / Sherlock Holmes : Jeu d'Ombres
    14 / Le Soliste
    ----------------------------------------------------------------------------------6/10-------
    15 / Spider-Man : Homecoming
    16 / Iron Man 3 ✔
    17 / #Chef
    18 / Date Limite
    19 / A Scanner Darkly
    20 / Wonder Boys
    21 / Tueurs Nés
    ----------------------------------------------------------------------------------5/10-------
    22 / Gothika
    23 / Iron Man 2

    http://www.senscritique.com/top/Les_meilleurs_films_avec_Robert_Downey_Jr/999164
  • 24 Photo Tom Hanks

    Tom Hanks

    acteur, producteur, scénariste, réalisateur, créateur, auteur et artiste musical

    Moyenne : 7,17/10
    ----------------------------------------------------------------------------------9/10-------
    1 / Forrest Gump
    2 / Il faut sauver le soldat Ryan
    3 / Arrête-moi si tu peux
    ----------------------------------------------------------------------------------8/10-------
    4 / Cloud Atlas
    5 / Capitaine Phillips ✔
    6 / La Ligne verte
    7 / Seul au monde
    8 / Philadelphia
    9 / Les Sentiers de la perdition
    10 / Apollo 13
    11 / Le Terminal
    ----------------------------------------------------------------------------------7/10-------
    12 / Le Pont des Espions
    13 / Pentagon Papers ✔
    14 / Sully
    15 / Big
    ----------------------------------------------------------------------------------6/10-------
    16 / Da Vinci Code
    17 / Le Bûcher des vanités
    18 / Dans l'ombre de Mary - La Promesse de Walt Disney
    19 / Ladykillers
    20 / Vous avez un mess@ge
    21 / Inferno
    ----------------------------------------------------------------------------------5/10-------
    22 / Nuits blanches à Seattle
    23 / Anges & Démons

    http://www.senscritique.com/top/Les_meilleurs_films_avec_Tom_Hanks/999057
  • 25 Photo Anthony Hopkins

    Anthony Hopkins

    acteur, réalisateur, producteur et scénariste

    Moyenne : 6,57/10
    ----------------------------------------------------------------------------------9/10-------
    1 / Le Silence des agneaux
    ----------------------------------------------------------------------------------8/10-------
    2 / Westworld (Série)
    3 / Elephant Man
    4 / Hannibal
    5 / Dragon rouge
    ----------------------------------------------------------------------------------7/10-------
    6 / Thor : Ragnarok
    7 / Dracula
    8 / Chaplin
    9 / Les Vestiges du jour
    10 / Légendes d'Automne
    11 / Alexandre
    12 / La Légende de Beowulf
    ----------------------------------------------------------------------------------6/10-------
    13 / Mission : Impossible 2
    14 / Rencontre avec Joe Black
    15 / Amistad
    16 / Thor : Le Monde des ténèbres ✔
    17 / Le Masque de Zorro
    18 / Retour à Howards End
    ----------------------------------------------------------------------------------5/10-------
    19 / Thor ✔
    20 / Prémonitions
    21 / Noé
    ----------------------------------------------------------------------------------3/10-------
    22 / Transformers : The Last Knight

    http://www.senscritique.com/top/Les_meilleurs_films_avec_Anthony_Hopkins/999630
  • 26 Photo John Goodman

    John Goodman

    acteur, producteur et artiste musical

    Moyenne : 6,23/10
    -----------------------------------------------------------------------------------8/10-------
    1 / O'Brother ✔
    2 / The Big Lebowski
    3 / Arizona Junior
    4 / Argo
    5 / Barton Fink
    -----------------------------------------------------------------------------------7/10-------
    6 / 10 Cloverfield Lane
    7 / The Artist
    8 / Dalton Trumbo
    9 / Panic sur Florida Beach
    10 / Inside Llewyn Davis
    11 / Flight
    -----------------------------------------------------------------------------------6/10-------
    12 / Kong : Skull Island ✔
    13 / Atomic Blonde
    14 / Death Sentence
    15 / Speed Racer
    16 / Always - Pour toujours
    -----------------------------------------------------------------------------------5/10-------
    17 / Transformers : L'Âge de l'extinction (voix) ✔
    18 / Les Stagiaires
    19 / Very Bad Trip 3 ✔
    -----------------------------------------------------------------------------------4/10-------
    20 / Monuments Men
    -----------------------------------------------------------------------------------3/10-------
    21 / Transformers : The Last Knight (voix)
    22 / Evan tout-puissant

    https://www.senscritique.com/top/Les_meilleurs_films_avec_John_Goodman/1605198
  • 27 Photo Leonardo DiCaprio

    Leonardo DiCaprio

    acteur, producteur, scénariste et réalisateur

    Moyenne : 7,91/10
    ----------------------------------------------------------------------------------9/10-------
    1 / Django Unchained
    2 / Shutter Island
    3 / Inception ✔
    4 / The Revenant ✔
    5 / Arrête-moi si tu peux
    6 / Les Infiltrés
    7 / Titanic
    8 / Le Loup de Wall Street ✔
    ----------------------------------------------------------------------------------8/10-------
    9 / Once Upon a Time in... Hollywood ✔
    10 / La Plage
    11 / Gangs of New York
    12 / Blood Diamond
    13 / Gatsby le Magnifique
    14 / Roméo + Juliette
    15 / Aviator
    ----------------------------------------------------------------------------------7/10-------
    16 / The Basketball Diaries
    17 / Gilbert Grape
    18 / Les Noces Rebelles
    19 / J. Edgar
    20 / L'Homme au masque de fer
    ----------------------------------------------------------------------------------6/10-------
    21 / Mensonges d'État
    ----------------------------------------------------------------------------------5/10-------
    22 / Mort ou vif

    http://www.senscritique.com/top/Les_meilleurs_films_avec_Leonardo_Di_Caprio/999544
  • 28 Photo Vincent Cassel

    Vincent Cassel

    acteur, producteur, réalisateur, scénariste et artiste musical

    Moyenne : 6,55/10
    ---------------------------------------------------------------------------------9/10------
    1 / La Haine
    ---------------------------------------------------------------------------------8/10------
    2 / Black Swan ✔
    3 / Mesrine : 1ère Partie - L'Instinct de mort
    4 / Mesrine : 2ème Partie - L'Ennemi public n°1
    5 / Le Monde est à toi ✔
    6 / Irréversible
    7 / Sur mes lèvres
    ---------------------------------------------------------------------------------7/10------
    8 / Les Promesses de l'ombre
    9 / Juste la fin du monde
    10 / Underwater
    11 / Elizabeth
    12 / Trance
    ---------------------------------------------------------------------------------6/10------
    13 / Sheitan
    14 / Ocean's 13
    15 / Jeanne d'Arc
    16 / Un Moment d'égarement ✔
    17 / Enfant 44
    18 / Ocean's Twelve
    ---------------------------------------------------------------------------------5/10------
    19 / Le Pacte des Loups
    20 / A Dangerous Method
    21 / Jason Bourne
    ---------------------------------------------------------------------------------1/10------
    22 / Sa majesté Minor

    http://www.senscritique.com/top/Les_meilleurs_films_avec_Vincent_Cassel/999523
  • 29 Photo Arnold Schwarzenegger

    Arnold Schwarzenegger

    acteur, producteur, réalisateur, auteur et artiste musical

    Moyenne : 6,09/10
    ----------------------------------------------------------------------------------9/10-------
    1 / Terminator 2 : Le Jugement dernier ✔
    ----------------------------------------------------------------------------------8/10-------
    2 / Last Action Hero
    3 / Terminator ✔
    4 / Predator
    ----------------------------------------------------------------------------------7/10-------
    5 / Total Recall ✔
    6 / Commando
    7 / Terminator 3 : Le Soulèvement des machines
    8 / True Lies
    ----------------------------------------------------------------------------------6/10-------
    9 / Conan le barbare
    10 / Running Man
    11 / Évasion
    12 / Le Dernier Rempart
    13 / Bienvenue dans la jungle (caméo)
    14 / Jumeaux
    ----------------------------------------------------------------------------------5/10-------
    15 / Le Tour du monde en 80 jours
    16 / Le Privé (caméo)
    17 / À l'aube du 6ème jour
    18 / Terminator : Dark Fate
    19 / Un Flic à la Maternelle
    ----------------------------------------------------------------------------------4/10-------
    20 / Terminator : Genisys
    ----------------------------------------------------------------------------------2/10-------
    21 / Batman & Robin

    http://www.senscritique.com/top/Les_meilleurs_films_avec_Arnold_Schwarzenegger/999540
  • 30 Photo Will Smith

    Will Smith

    acteur, producteur, scénariste, artiste musical, créateur et réalisateur

    Moyenne : 6,09/10
    ----------------------------------------------------------------------------------8/10-------
    1 / Je suis une légende
    ----------------------------------------------------------------------------------7/10-------
    2 / Ali
    3 / I, Robot
    4 / Aladdin ✔
    5 / Légendes Vivantes
    6 / Men in Black
    7 / Sept Vies
    8 / Ennemi d'état
    9 / Independence Day
    10 / Men in Black 3
    ----------------------------------------------------------------------------------6/10-------
    11 / Bad Boys
    12 / Hancock
    13/ Seul contre tous
    14 / Bad Boys II
    15 / Diversion
    ----------------------------------------------------------------------------------5/10-------
    16 / Gemini Man ✔
    17 / Bad Boys for Life
    18 / After Earth
    19 / Wild Wild West
    20 / Men in Black II
    21 / Hitch, expert en séduction
    ----------------------------------------------------------------------------------3/10-------
    22 / Suicide Squad

    http://www.senscritique.com/top/Les_meilleurs_films_avec_Will_Smith/999643