SensCritique
Cover Top Acteurs 2.0

Top Acteurs 2.0

Classement des films par acteur, sans prise en compte des films d'animations, 5 films minimum par acteur. Ils sont classés selon le nombre de films visionnés. De plus les acteurs avec plus de 10 films sont classés dans un Top 10 selon la moyenne des films visionnés.

✔ signifie que j'ai ...

Afficher plus

Liste de

1480 personnalités

créee il y a plus de 9 ans · modifiée il y a 1 jour

Samuel L. Jackson

1. Samuel L. Jackson

Annotation :

Moyenne : 6,68/10
----------------------------------------------------------------------------------9/10-------
1 / Jurassic Park ✔
2 / Star Wars Episode III : La Revanche des Siths
3 / Kingsman : Services secrets ✔
4 / Django Unchained
5 / Les 8 Salopards ✔
6 / Kill Bill : Volume 1
7 / Kill Bill : Volume 2
----------------------------------------------------------------------------------8/10-------
8 / Avengers : Endgame ✔
9 / Une Journée en Enfer
10 / Incassable ✔
11 / Pulp Fiction
12 / Star Wars Episode I : La Menace Fantôme
13 / Avengers : Infinity War ✔
14 /True Romance
15 / Do The Right Thing
----------------------------------------------------------------------------------7/10-------
16 / Star Wars Episode II : L'Attaque des Clones
17 /Jackie Brown
18 / Glass ✔
19 / Iron Man
20 / Avengers : L'Ère d'Ultron ✔
21 / Avengers ✔
22 / Captain America : Le Soldat de l'Hiver ✔
23 / Black Snake Moan
----------------------------------------------------------------------------------6/10-------
24 / Spider-Man : Far From Home ✔
25 / Chambre 1408
26 / RoboCop
27 / Double Mise
28 / Kong : Skull Island ✔
29 / Coach Carter
30 / Captain Marvel ✔
31 / Jumper
32 / Captain America : First Avenger ✔
33 / Un Prince à New-York
34 / Hitman & Bodyguard
----------------------------------------------------------------------------------5/10-------
35 / Thor ✔
36 / Iron Man 2
37 / Miss Peregrine et les Enfants particuliers
38 / Tarzan
39 / Des Serpents dans l'Avion
40 / Oldboy (US)
41 / Very Bad Cops
----------------------------------------------------------------------------------4/10-------
42 / xXx
----------------------------------------------------------------------------------3/10-------
43 / xXx : The Next Level
----------------------------------------------------------------------------------2/10-------
44 / Argylle ✔

http://www.senscritique.com/top/Les_meilleurs_films_avec_Samuel_L_Jackson/999573

Robert De Niro

2. Robert De Niro

Annotation :

Moyenne : 7,02/10
---------------------------------------------------------------------------------10/10-------
1 / Voyage au bout de l'enfer ✔
----------------------------------------------------------------------------------9/10-------
2 / Les Affranchis
3 / Il était une fois en Amérique
4 / Killers of the Flower Moon ✔
5 / Casino
----------------------------------------------------------------------------------8/10-------
6 / Heat
7 / Taxi Driver
8 / Joker ✔
9 / Brazil
10 / Sleepers
11 / Le Parrain : 2e Partie
12 / Angel Heart
13 / Raging Bull
14 / Les Incorruptibles
15 / La Valse des Pantins
----------------------------------------------------------------------------------7/10-------
16 / The Irishman
17 / Jackie Brown
18 / Les Nerfs à vif
19 / L'Éveil
20 / Copland
21 / 1900
22 / Happiness Therapy
23 / Mission
24 / Machete
----------------------------------------------------------------------------------6/10-------
25 / Mon beau-père et moi
26 / Limitless
27 / Hands of Stone
28 / Public Enemies
29 / Frankenstein
30 / Raisons d'état
31 / Midnight Run
32 / Stardust - Le Mystère de l'Étoile
33 / Mon beau-père, mes parents et moi
34 / American Bluff ✔
35 / Mean Streets
36 / Joy ✔
----------------------------------------------------------------------------------5/10-------
37 / Le Fan
38 / Amsterdam
39 / Mon beau-père et nous
40 / Malavita
41 / Killer Elite

http://www.senscritique.com/top/Les_meilleurs_films_avec_Robert_de_Niro/999666

Brad Pitt

3. Brad Pitt

Acteur et producteur

Annotation :

Moyenne : 7,39/10
--------------------------------------------------------------------------------10/10-------
1 / Seven
----------------------------------------------------------------------------------9/10-------
2 / Babylon ✔
3 / Fight Club
4 / Thelma et Louise ✔
----------------------------------------------------------------------------------8/10-------
5 / Entretien avec un Vampire
6 / L'Etrange Histoire de Benjamin Button ✔
7 / Inglorious Basterds
8 / Ad Astra ✔
9 / Once Upon a Time in... Hollywood ✔
10 / L'Armée des 12 Singes
11 / Snatch
12 / L'Assassinat de Jesse James par le lâche Robert Ford
13 / Et au Milieu coule une Rivière
14 / The Big Short : Le Casse du siècle
15 / Sleepers
16 / 12 Years a Slave
17 / Fury
18 / True Romance
19 / Babel
----------------------------------------------------------------------------------7/10-------
20 / Troie
21 / Bullet Train ✔
22 / Dans la Peau de John Malkovich
23 / World War Z ✔
24 / Ocean's Twelve
25 / Ocean's Eleven
26 / Alliés
27 / Le Stratège
28 / Burn After Reading
29 / Confessions d'un homme dangereux (caméo)
30 / Légendes d'Automne
31 / Sept Ans au Tibet
----------------------------------------------------------------------------------6/10-------
32 / Rencontre avec Joe Black
33 / Ocean's 13
34 / Deadpool 2 (caméo)
35 / Mr. & Mrs Smith
36 / Spy game, jeu d'espions
37 / Ennemis Rapprochés
----------------------------------------------------------------------------------4/10-------
38 / Cartel

http://www.senscritique.com/top/Les_meilleurs_films_avec_Brad_Pitt/999644

Willem Dafoe

4. Willem Dafoe

Annotation :

Moyenne : 6,49/10
--------------------------------------------------------------------------------8/10-------
1 / The Northman ✔
2 / Nightmare Alley ✔
3 / Spider-Man 2
4 / Platoon
5 / Spider-Man
6 / Inside Man, l'homme de l'intérieur
7 / Aviator
8 / Mississippi Burning
--------------------------------------------------------------------------------7/10-------
9 / The Grand Budapest Hotel
10 / Pauvres Créatures ✔
11 / Le Patient anglais
12 / Spider-Man 3
13 / American Psycho
14 / Nymphomaniac : Volume 2
15 / Les Brasiers de la Colère
16 / La Vie aquatique
17 / The Lighthouse
18 / The French Dispatch ✔
19 / Brooklyn Affairs ✔
20 / Togo
21 / The Florida Project
--------------------------------------------------------------------------------6/10-------
22 / Asteroid City ✔
23 / Spider-Man: No Way Home ✔
24 / Paris, je t'aime
25 / eXistenZ
26 / Zack Snyder's Justice League
27 / Sailor et Lula
28 / Le Crime de l'Orient-Express
29 / Le Chasseur
30 / Nos étoiles contraires
---------------------------------------------------------------------------------5/10-------
31 / La Grande Muraille
32 / Aquaman
33 / Desperado 2 : Il était une fois au Mexique
34 / John Carter (voix)
35 / John Wick
--------------------------------------------------------------------------------3/10-------
36 / Speed 2 : Cap sur le danger
37 / XXX 2 : The Next Level

http://www.senscritique.com/top/Les_meilleurs_films_avec_Willem_Dafoe/999046

Matt Damon

5. Matt Damon

Annotation :

Moyenne : 6,69/10
----------------------------------------------------------------------------------10/10------
1 / Interstellar ✔
----------------------------------------------------------------------------------9/10-------
2 / Les Infiltrés
3 / Il faut sauver le soldat Ryan
----------------------------------------------------------------------------------8/10-------
4 / Oppenheimer
5 / Will Hunting
6 / Le Derniel Duel ✔
7 / La Mémoire dans la peau
8 / Le Mans 66 ✔
9 / Seul sur Mars ✔
10 / La Mort dans la peau
11 / La Vengeance dans la peau
12 / True Grit
----------------------------------------------------------------------------------7/10-------
13 / Le Talentueux Mr. Ripley
14 / Ocean's Twelve
15 / Ocean's Eleven
16 / Confessions d'un homme dangereux (caméo)
17 / Thor : Ragnarok (caméo)
18 / Les Joueurs
19 / Invictus
----------------------------------------------------------------------------------6/10-------
20 / Ocean's 13
21 / Deadpool 2 (caméo)
22 / Raisons d'état
23 / Air
24 / Gerry
25 / Bienvenue à Suburbicon
26 / Green Zone
27 / Downsizing
28 / Deux en un
----------------------------------------------------------------------------------5/10-------
29 / Thor : Love and Thunder (caméo) ✔
30 / La Grande Muraille
31 / Elysium
32 / Jason Bourne
33 / Sex Trip
34 / Contagion
----------------------------------------------------------------------------------4/10-------
35 / L'Agence
36 / Monuments Men

http://www.senscritique.com/top/Les_meilleurs_films_avec_Matt_Damon/999483

Nicolas Cage

6. Nicolas Cage

Annotation :

Moyenne : 6,09/10
----------------------------------------------------------------------------------8/10-------
1 / Lord of War
2 / Arizona Junior
3 / Snake Eyes
4 / Volte/face
----------------------------------------------------------------------------------7/10-------
5 / Birdy
6 / Leaving Las Vegas
7 / 8 mm
8 / Les Associés
9 / Kick-Ass
10 / Mandy
11 / Snowden
12 / Windtalkers, les messagers du vent
13 / Adaptation.
14 / The Surfer ✔
15 / Les Ailes de l'enfer
16 / Dream Scenario
----------------------------------------------------------------------------------6/10-------
17 / Cotton Club
18 / Benjamin Gates et le Trésor des Templiers
19 / Benjamin Gates et le Livre des secrets
20 / Sailor et Lula
21 / Rock
22 / Pig
23 / Family Man
24 / Peggy Sue s'est mariée
25 / À tombeau ouvert
26 / Un talent en or massif ✔
----------------------------------------------------------------------------------5/10-------
27 / 60 Secondes Chrono
28 / The Weather Man
29 / World Trade Center
30 / The Flash (cameo)
----------------------------------------------------------------------------------4/10-------
31 / Ghost Rider
32 / L'Apprenti Sorcier
33 / Bangkok Dangerous
----------------------------------------------------------------------------------3/10-------
34 / Prédictions
----------------------------------------------------------------------------------2/10-------
35 / Ghost Rider : L'Esprit de vengeance

http://www.senscritique.com/top/Les_meilleurs_films_avec_Nicolas_Cage/999665

Bruce Willis

7. Bruce Willis

Annotation :

Moyenne : 6,55/10
----------------------------------------------------------------------------------9/10-------
1 / Piège de Cristal
----------------------------------------------------------------------------------8/10-------
2 / L'Armée des 12 Singes
3 / Une Journée en Enfer
4 / Incassable ✔
5 / Pulp Fiction
6 / Le Cinquième Elément
7 / Moonrise Kingdom
8 / La Mort vous va si bien
----------------------------------------------------------------------------------7/10-------
9 / Sixième Sens
10 / Brooklyn Affairs ✔
11 / Looper
12 / Ocean's Twelve
13 / Sin City
14 / Groom Service
15 / Le Dernier Samaritain
16 / Split (caméo) ✔
17 / Glass ✔
18 / Slevin
19 / Planète Terreur
20 / I'm Still Here
-----------------------------------------------------------------------------------6/10-------
21 / Sin City : J'ai Tué pour Elle
22 / 58 Minutes pour Vivre
23 / Le Bûcher des vanités
24 / Mon Voisin le Tueur
25 / 16 Blocs
26 / Les Larmes du Soleil
27 / Armaggedon
----------------------------------------------------------------------------------5/10-------
28 / Red
29 / Clones
30 / Mon Voisin le Tueur 2
31 / Die Hard 4 : Retour en Enfer
----------------------------------------------------------------------------------4/10-------
32 / Die Hard : Belle Journée pour Mourir
33 / Top Cops

http://www.senscritique.com/top/Les_meilleurs_films_avec_Bruce_Willis/999639

Johnny Depp

8. Johnny Depp

Annotation :

Moyenne : 6,42/10
----------------------------------------------------------------------------------8/10-------
1 / Donnie Brasco
2 / Sleepy Hollow, la légende du cavalier sans tête ✔
3 / Platoon
4 / Edward aux mains d'argent
5 / Pirates des Caraïbes : Le Secret du coffre maudit
6 / Pirates des Caraïbes : La Malédiction du Black Pearl
----------------------------------------------------------------------------------7/10-------
7 / Sweeney Todd, le diabolique barbier de Fleet Street
8 / Ed Wood
9 / Charlie et la Chocolaterie
10 / 21 Jump Street (caméo)
11 / Les Animaux fantastiques ✔
12 / Blow
13 / Las Vegas Parano
14 / Gilbert Grape
15 / Les Griffes de la nuit
16 / Pirates des Caraïbes : Jusqu'au bout du monde
----------------------------------------------------------------------------------6/10-------
17 / Public Enemies
18 / Lone Ranger : Naissance d'un héros
19 / Les Animaux fantastiques : Les Crimes de Grindelwald ✔
20 / Pirates des Caraïbes : La Vengeance de Salazar ✔
21 / Pirates des Caraïbes : La Fontaine de Jouvence ✔
22 / Neverland
23 / L'Imaginarium du Docteur Parnassus
24 / Le Crime de l'Orient-Express
25 / Chocolat
26 / From Hell
27 / Alice de l'autre côté du miroir ✔
----------------------------------------------------------------------------------5/10-------
28 / Desperado 2 : Il était une fois au Mexique
29 / La Fin de Freddy : L'Ultime Cauchemar (caméo)
30 / Alice au pays des merveilles
31 / Dark Shadows
32 / Cry-Baby
----------------------------------------------------------------------------------3/10-------
33 / Into the Woods - Promenons-nous dans les bois

http://www.senscritique.com/top/Les_meilleurs_films_avec_Johnny_Depp/999621

Tom Cruise

9. Tom Cruise

Annotation :

Moyenne : 6,91/10
----------------------------------------------------------------------------------8/10-------
1 / Entretien avec un vampire
2 / Mission : Impossible - Fallout ✔
3 / Mission : Impossible - Rogue Nation ✔
4 / Mission: Impossible - Dead Reckoning Partie 1 ✔
5 / Magnolia
6 / Top Gun: Maverick ✔
7 / Rain Man
8 / La Guerre des mondes
9 / Collateral
10 / Minority Report
11 / Barry Seal : American Traffic
----------------------------------------------------------------------------------7/10-------
12 / Edge of Tomorrow
13 / Eyes Wide Shut
14 / Tonnerre sous les tropiques
15 / Mission : Impossible
16 / Walkyrie
17 / Le Dernier Samouraï
18 / Mission : Impossible - Protocole fantôme
19 / Mission : Impossible III
20 / Vanilla Sky
21 / La Couleur de l'argent ✔
22 / Outsiders
23 / Jerry Maguire
24 / Né un 4 Juillet
----------------------------------------------------------------------------------6/10-------
25 / La Firme
26 / Top Gun
27 / Mission : Impossible 2
28 / Jack Reacher
29 / Oblivion
----------------------------------------------------------------------------------5/10-------
30 / Legend
31 / Jours de tonnerre
32 / La Momie
----------------------------------------------------------------------------------4/10-------
33 / Rock Forever

http://www.senscritique.com/top/Les_meilleurs_films_avec_Tom_Cruise/999026

Liam Neeson

10. Liam Neeson

Annotation :

Moyenne : 6,31/10
----------------------------------------------------------------------------------9/10-------
1 / La Liste de Schindler
----------------------------------------------------------------------------------8/10-------
2 / Batman Begins
3 / The Dark Knight Rises ✔
4 / Gangs of New York
5 / Star Wars : Épisode I - La Menace fantôme
6 / Excalibur ✔
7 / Quelques minutes après minuit (voix)
----------------------------------------------------------------------------------7/10-------
8 / Kingdom of Heaven : Director's Cut ✔
9 / Taken
10 / Le Monde de Narnia : Chapitre 1 (voix)
11 / Mission
12 / Maris et Femmes ✔
13 / Silence
14 / La Ballade de Buster Scruggs
15 / Le Territoire des Loups
----------------------------------------------------------------------------------6/10-------
16 / Légendes Vivantes (caméo)
17 / Les Veuves
18 / Darkman
19 / Love Actually
20 / Ted 2 (caméo)
21 / Non-Stop
22 / The Passenger
23 / Albert à l'Ouest
----------------------------------------------------------------------------------5/10-------
24 / Le Monde de Narnia : Chapitre 2 (voix)
25 / Le Monde de Narnia : Chapitre 3 (voix) ✔
26 / Sans Identité
27 / Men in Black : International
28 / Le Choc des Titans
29 / La Colère des Titans ✔
30 / L'Agence tous risques
----------------------------------------------------------------------------------4/10-------
31 / Taken 2
----------------------------------------------------------------------------------3/10-------
32 / Taken 3

http://www.senscritique.com/top/Les_meilleurs_films_avec_Liam_Neeson/999420

Gérard Depardieu

11. Gérard Depardieu

Annotation :

Moyenne : 6,16/10
----------------------------------------------------------------------------------8/10-------
1 / Astérix et Obélix : Mission Cléopâtre ✔
2 / Cyrano de Bergerac
3 / Jean de Florette
4 / Mesrine : 1ère Partie - L'Instinct de mort
5 / Illusions perdues ✔
6 / Les Valseuses
7 / L'Odysée de Pi
8 / Hamlet
----------------------------------------------------------------------------------7/10-------
9 / La Môme
10 / Buffet Froid
11 / 1900
12 / À l'origine
13 / Paris, je t'aime
----------------------------------------------------------------------------------6/10-------
14 / Le Dernier Métro
15 / 1492 : Christophe Colomb
16 / Préparez vos mouchoirs
17 / Bon Voyage
18 / Vincent, François, Paul et les autres...
19 / L'Homme au masque de fer
20 / Astérix et Obélix contre César
21 / Le Choix des armes
22 / RRRrrrr !!!
23 / Inspecteur la Bavure
24 / Tais-toi !
----------------------------------------------------------------------------------5/10-------
25 / Babylon A.D.
26 / Sous le soleil de Satan
27 / Michou d'Auber
28 / Les Enfants de Timpelbach
29 / Astérix aux jeux olympiques ✔
----------------------------------------------------------------------------------2/10-------
30 / Astérix et Obélix : Au service de sa Majesté
31 / Alad'2

http://www.senscritique.com/top/Les_meilleurs_films_avec_Gerard_Depardieu/999382

Anthony Hopkins

12. Anthony Hopkins

Annotation :

Moyenne : 6,23/10
----------------------------------------------------------------------------------9/10-------
1 / Le Silence des agneaux
----------------------------------------------------------------------------------8/10-------
2 / The Father
3 / Westworld (Série)
4 / Elephant Man
---------------------------------------------------------------------------------7/10-------
5 / Dracula
6 / Armageddon Time ✔
7 / Une vie ✔
8 / Chaplin
9 / Les Deux Papes
10 / Hannibal
11 / Dragon rouge
12 / La Légende de Beowulf
13 / Thor : Ragnarok
14 / Les Vestiges du jour
15 / Légendes d'Automne
16 / Alexandre
----------------------------------------------------------------------------------6/10-------
17 / Mission : Impossible 2
18 / Rencontre avec Joe Black
19 / Amistad
20 / Le Masque de Zorro
21 / La Faille
22 / Retour à Howards End
23 / Thor : Le Monde des ténèbres ✔
----------------------------------------------------------------------------------5/10-------
24 / The Son
25 / Thor ✔
26 / Prémonitions
27 / Noé
----------------------------------------------------------------------------------3/10-------
28 / Rebel Moon : Partie 1 - Enfant du Feu (voix)
29 / Transformers : The Last Knight
----------------------------------------------------------------------------------3/10-------
30 / Rebel Moon : Partie 2 - L'Entailleuse (voix)

http://www.senscritique.com/top/Les_meilleurs_films_avec_Anthony_Hopkins/999630

Tom Hanks

13. Tom Hanks

Annotation :

Moyenne : 6,8/10
----------------------------------------------------------------------------------9/10-------
1 / Forrest Gump
2 / Il faut sauver le soldat Ryan
3 / Arrête-moi si tu peux
----------------------------------------------------------------------------------8/10-------
4 / Cloud Atlas
5 / Capitaine Phillips ✔
6 / La Ligne verte
7 / Seul au monde
8 / Philadelphia
9 / Les Sentiers de la perdition
10 / Apollo 13
11 / Le Terminal
----------------------------------------------------------------------------------7/10-------
12 / Le Pont des Espions
13 / Elvis ✔
14 / Pentagon Papers ✔
15 / Sully
16 / Big
17 / Finch
----------------------------------------------------------------------------------6/10-------
18 / Asteroid City ✔
19 / La Mission
20 / Da Vinci Code
21 / Le Bûcher des vanités
22 / Dans l'ombre de Mary - La Promesse de Walt Disney
23 / Ladykillers
24 / Les Banlieusards
----------------------------------------------------------------------------------5/10-------
25 / Inferno
26 / Vous avez un mess@ge
27 / Nuits blanches à Seattle
28 / USS Greyhound - La Bataille de l'Atlantique
29 / Anges & Démons
----------------------------------------------------------------------------------4/10-------
30 / Pinocchio

http://www.senscritique.com/top/Les_meilleurs_films_avec_Tom_Hanks/999057

Woody Harrelson

14. Woody Harrelson

Annotation :

Moyenne : 6,4/10
---------------------------------------------------------------------------------9/10------
1 / True Detective : Saison 1 (Série)
2 / No Country for Old Men
---------------------------------------------------------------------------------8/10------
3 / La Ligne rouge
4 / 3 Billboards, les panneaux de la vengeance ✔
5 / Sans Filtre ✔
6 / La Planète des Singes : Suprématie
7 / Larry Flynt
---------------------------------------------------------------------------------7/10------
8 / Bienvenue à Zombieland
9 / Hunger Games : L'Embrasement ✔
10 / 2012
11 / Sept Vies
12 / Les Brasiers de la Colère
13 / Solo : A Star Wars Story
---------------------------------------------------------------------------------6/10------
14 / Hunger Games : La Révolte, partie 2 ✔
15 / Hunger Games
16 / Retour à Zombieland
17 / Hunger Games : La Révolte, partie 1✔
18 / A Scanner Darkly
19 / Midway
20 / Defendor
21 / Insaisissables
22 / Transsiberian
23 / Tueurs nés
---------------------------------------------------------------------------------5/10------
24 / 7 psychopathes
25 / En direct sur Ed TV
26 / Triple 9
27 / Self Control
28 / Venom
---------------------------------------------------------------------------------4/10------
29 / Insaisissables 2
----------------------------------------------------------------------------------3/10-------
30 / Venom : Let There Be Carnage

http://www.senscritique.com/top/Les_meilleurs_films_avec_Woody_Harrelson/1051170

Colin Farrell

15. Colin Farrell

Annotation :

Moyenne : 6,66/10
----------------------------------------------------------------------------------8/10-------
1 / Bons baisers de Bruges
2 / The Batman ✔
3 / Minority Report
4 / Le Nouveau Monde
5 / The North Water (Série)
6 / The Gentlemen ✔
7 / Miami Vice, deux flics à Miami
8 / The War Zone
9 / Treize vies
----------------------------------------------------------------------------------7/10-------
10 / Les Banshees d'Inisherin
11 / Phone Game
12 / The Lobster
13 / Les Animaux fantastiques ✔
14 / Le Rêve de Cassandre
15 / True Detective : Saison 2 (Série)
16 / Mise à mort du cerf sacré
17 / Alexandre
18 / Les Chemins de la liberté ✔
----------------------------------------------------------------------------------6/10-------
19 / After Yang
20 / Les Veuves
21 / Dumbo
22 / Comment tuer son Boss
23 / L'Imaginarium du Docteur Parnassus
24 / Dans l'ombre de Mary - La Promesse de Walt Disney
----------------------------------------------------------------------------------5/10-------
25 / 7 psychopathes
26 / Prémonitions
27 / Total Recall : Mémoires programmées ✔
----------------------------------------------------------------------------------4/10-------
28 / Daredevil
----------------------------------------------------------------------------------3/10-------
29 / Artemis Fowl

http://www.senscritique.com/top/Les_meilleurs_films_avec_Colin_Farrell/999149

Ralph Fiennes

16. Ralph Fiennes

Annotation :

Moyenne : 6,97/10
----------------------------------------------------------------------------------9/10-------
1 / La Liste de Schindler
2 / Skyfall ✔
----------------------------------------------------------------------------------8/10-------
3 / The Dig
4 / Harry Potter et les Reliques de la Mort : Partie 2 ✔
5 / Bons Baisers de Bruges
6 / Harry Potter et les Reliques de la Mort : Partie 1 ✔
7 / Harry Potter et la Coupe de Feu
8 / The Reader
----------------------------------------------------------------------------------7/10-------
9 / Strange Days
10 / Mourir peut attendre ✔
11 / Dragon Rouge
12 / The Grand Budapest Hotel
13 / Official Secrets
14 / Démineurs
15 / Le Patient Anglais
16 / The Constant Gardener
17 / La Merveilleuse Histoire de Henry Sugar (court-métrage)
18 / 007 Spectre ✔
19 / Quizz Show
20 / Harry Potter et l'Ordre du Phénix ✔
21 / Poison (court-métrage)
----------------------------------------------------------------------------------6/10-------
22 / The Menu ✔
23 / The King's Man - Première mission ✔
24 / The Duchess
25 / Le Cygne (court-métrage)
26 / Le Preneur de rats (court-métrage)
----------------------------------------------------------------------------------5/10-------
27 / Le Choc des Titans
28 / La Colère des Titans ✔
29 / Ave, César !

http://www.senscritique.com/top/Les_meilleurs_films_avec_Ralph_Fiennes/999452

Vincent Cassel

17. Vincent Cassel

Annotation :

Moyenne : 6,45/10
---------------------------------------------------------------------------------9/10------
1 / La Haine
---------------------------------------------------------------------------------8/10------
2 / Black Swan ✔
3 / Mesrine : 1ère Partie - L'Instinct de mort
4 / Mesrine : 2ème Partie - L'Ennemi public n°1
5 / Le Monde est à toi ✔
6 / Irréversible
7 / Hors Normes
8 / Sur mes lèvres
---------------------------------------------------------------------------------7/10------
9 / Les Promesses de l'ombre
10 / Juste la fin du monde
11 / Mon Roi
12 / Ocean's Twelve
13 / Les Trois Mousquetaires - D'Artagnan ✔
14 / Westworld : Saison 3 (Série)
15 / Underwater
16 / Elizabeth
17 / Trance
--------------------------------------------------------------------------------6/10------
18 / Ocean's 13
19 / Sheitan
20 / Jeanne d'Arc
21 / Les Trois Mousquetaires - Milady ✔
22 / Un Moment d'égarement ✔
23 / Enfant 44
24 / Le Pacte des Loups
---------------------------------------------------------------------------------5/10------
25 / A Dangerous Method
26 / Jason Bourne
---------------------------------------------------------------------------------4/10------
27 / Les Rivières pourpres
---------------------------------------------------------------------------------3/10------
28 / Astérix & Obélix - L'Empire du milieu
---------------------------------------------------------------------------------1/10------
29 / Sa majesté Minor

http://www.senscritique.com/top/Les_meilleurs_films_avec_Vincent_Cassel/999523

Benedict Cumberbatch

18. Benedict Cumberbatch

Annotation :

Moyenne : 6,93/10
----------------------------------------------------------------------------------8/10-------
1 / Reviens-moi
2 / Avengers : Endgame ✔
3 / Sherlock (Série)
4 / Avengers : Infinity War ✔
5 / Désigné coupable
6 / 1917
7 / Le Hobbit : Un Voyage inattendu (voix) ✔
8 / Le Hobbit : La Désolation de Smaug (voix) ✔
9 / Star Trek Into Darkness
10 / 12 Years a Slave
----------------------------------------------------------------------------------7/10-------
11 / Imitation Game
12 / The Power of Dog
13 / The Current War
14 / The End We Start From
15 / La Merveilleuse Histoire de Henry Sugar (court-métrage)
16 / Doctor Strange ✔
17 / Thor : Ragnarok
18 / Le Hobbit : La Bataille des cinq armées (voix) ✔
19 / Cheval de guerre
20 / Venin (court-métrage)
----------------------------------------------------------------------------------6/10-------
21 / Doctor Strange in the Multiverse of Madness ✔
22 / Spider-Man: No Way Home ✔
23 / Un espion ordinaire
24 / Mowgli : La Légende de la jungle (voix)
25 / We Are Four Lions
26 / Deux Sœurs pour un roi
----------------------------------------------------------------------------------5/10-------
27 / La Taupe
----------------------------------------------------------------------------------3/10-------
28 / Zoolander 2 (caméo)

http://www.senscritique.com/top/Les_meilleurs_films_avec_Benedict_Cumberbatch/1000512

Morgan Freeman

19. Morgan Freeman

Annotation :

Moyenne : 6,57/10
--------------------------------------------------------------------------------10/10------
1 / Seven
----------------------------------------------------------------------------------9/10-------
2 / The Dark Knight, le Chevalier noir
3 / Les Evadés
4 / Impitoyable
----------------------------------------------------------------------------------8/10-------
5 / Batman Begins
6 / The Dark Knight Rises ✔
7 / Million Dollar Baby
----------------------------------------------------------------------------------7/10-------
8 / Glory
9 / Slevin
10 / Invictus
11 / Wanted : Choisis ton destin
12 / Robin des bois, prince des voleurs
13 / Bruce tout-puissant
14 / Gone Baby Gone
----------------------------------------------------------------------------------6/10-------
15 / Amistad
16 / Ted 2
17 / Sans plus attendre
18 / Le Bûcher des vanités
19 / Une vie inachevée
20 / Oblivion
21 / Danny the Dog
22 / Insaisissables
----------------------------------------------------------------------------------5/10-------
23 / Red
24 / Lucy
25 / Casse-Noisette et les Quatre Royaumes
----------------------------------------------------------------------------------4/10-------
26 / Insaisissables 2
27 / Deep Impact
----------------------------------------------------------------------------------3/10-------
28 / Evan tout-puissant

http://www.senscritique.com/top/Les_meilleurs_films_avec_Morgan_Freeman/999578

Bill Murray

20. Bill Murray

Annotation :

Moyenne : 6,3/10
----------------------------------------------------------------------------------8/10-------
1 / Un jour sans fin ✔
2 / Moonrise Kingdom
----------------------------------------------------------------------------------7/10-------
3 / La Petite Boutique des Horreurs
4 / The Grand Budapest Hotel
5 / Bienvenue à Zombieland
6 / Rushmore
7 / S.O.S Fantômes
8 / Toostsie
9 / Le Livre de la jungle (voix) ✔
10 / Ed Wood
11 / Lost in Translation
12 / La Famille Tenenbaum
13 / La Vie aquatique
14 / The French Dispatch ✔
15 / Osmosis Jones
----------------------------------------------------------------------------------6/10-------
16 / À bord du Darjeeling Limited
17 / S.O.S. Fantômes - L'héritage ✔
18 / Space Jam
19 / Sexcrimes
20 / S.O.S Fantômes 2
----------------------------------------------------------------------------------5/10-------
21 / La Cité de l'ombre
22 / S.O.S. Fantômes - La Menace de glace ✔
23 / The Dead Don't Die ✔
24 / Max la menace
----------------------------------------------------------------------------------4/10-------
25 / Monuments Men
26 / Charlie et ses drôles de dames
----------------------------------------------------------------------------------3/10-------
27 / Ant-Man et la Guêpe - Quantumania

http://www.senscritique.com/top/Les_meilleurs_films_avec_Bill_Murray/999658

Christian Bale

21. Christian Bale

Acteur

Annotation :

Moyenne : 6,74/10
----------------------------------------------------------------------------------9/10-------
1 / The Dark Knight, le Chevalier Noir
2 / Le Prestige ✔
----------------------------------------------------------------------------------8/10-------
3 / The Dark Knight Rises ✔
4 / Batman Begins
5 / Le Mans 66 ✔
6 / The Big Short : Le Casse du siècle
7 / Le Nouveau Monde
8 / 3h10 pour Yuma
----------------------------------------------------------------------------------7/10-------
9 / Vice
10 / Hostiles
11 / Exodus : Gods and Kings
12 / American Psycho
13 / Les Quatre Filles du docteur March
14 / Les Brasiers de la Colère
15 / L'Empire du Soleil
----------------------------------------------------------------------------------6/10-------
16 / Sacrifices of War
17 / Public Enemies
18 / Le Règne du Feu
19 / Mowgli : La Légende de la jungle (voix)
20 / Fighter
21 / American Bluff ✔
22 / The Machinist
23 / Equilibrium
----------------------------------------------------------------------------------5/10-------
24 / Amsterdam
25 / Terminator : Renaissance
26 / Thor : Love and Thunder
----------------------------------------------------------------------------------4/10-------
27 / Knight of Cups

http://www.senscritique.com/top/Les_meilleurs_films_avec_Christian_Bale/999647

Hugh Jackman

22. Hugh Jackman

Annotation :

Moyenne : 6,19/10
----------------------------------------------------------------------------------9/10-------
1 / Le Prestige ✔
----------------------------------------------------------------------------------8/10-------
2 / X-Men : Days of Future Past ✔
3 / Prisoners
4 / X-Men : Le Commencement ✔
----------------------------------------------------------------------------------7/10-------
5 / Logan
6 / Scoop
7 / X-Men
8 / X-Men 2
9 / Wolverine : Le Combat de l'immortel ✔
10 / Eddie the Eagle
11 / The Fountain
----------------------------------------------------------------------------------6/10-------
12 / The Front Runner
13 / La Nuit au musée : Le Secret des Pharaons
14 / X-Men : Apocalypse ✔
15 / Real Steel
16 / X-Men : L'Affrontement final
17 / Chappie
18 / Les Misérables
----------------------------------------------------------------------------------5/10-------
19 / Australia
20 / Pan
21 / The Greatest Showman ✔
22 / The Son
23 / Reminiscence ✔
24 / X-Men Origins : Wolverine
25 / Opération Espadon
26 / Van Helsing
-----------------------------------------------------------------------------------3/10-------
27 / My Movie Project

http://www.senscritique.com/top/Les_meilleurs_films_avec_Hugh_Jackman/999397

James Franco

23. James Franco

Annotation :

Moyenne : 6,19/10
----------------------------------------------------------------------------------8/10-------
1 / La Planète des singes : Les Origines ✔
2 / Spider-Man 2
3 / Spider-Man
4 / 11.22.63 (Série)
5 / The Deuce (Série)
----------------------------------------------------------------------------------7/10-------
6 / Freaks and Geeks (Série)
7 / The Disaster Artist
8 / An American Crime
9 / Spider-Man 3
10 / C'est la fin
11 / La Ballade de Buster Scruggs
12 / The Iceman
13 / Harvey Milk
14 / 127 Heures
---------------------------------------------------------------------------------6/10--------
15 / The Green Hornet ✔
16 / L'Interview qui tue !
17 / True Story
18 / Le Monde fantastique d'Oz
19 / Palo Alto
20 / The Holiday (caméo)
----------------------------------------------------------------------------------5/10-------
21 / Mange, Prie, Aime
22 / Délire Express
23 / Votre Majesté
24 / Homefront ✔
25 / Every Thing will be Fine
26 / Spring Breakers ✔
----------------------------------------------------------------------------------3/10-------
27 / Alien : Covenant (caméo) ✔

http://www.senscritique.com/top/Les_meilleurs_films_avec_James_Franco/999439

Owen Wilson

24. Owen Wilson

Annotation :

Moyenne : 5,74/10
--------------------------------------------------------------------------------7/10-------
1 / The Grand Budapest Hotel
2 / Disjoncté
3 / La Famille Tenenbaum
4 / Minuit à Paris
5 / Tête brûlée
6 / La Vie aquatique
7 / The French Dispatch ✔
--------------------------------------------------------------------------------6/10-------
8 / Serial Noceurs
9 / À bord du Darjeeling Limited
10 / Mon beau-père et moi
11 / La Nuit au musée
12 / ShanghaI Kid
13 / La Nuit au musée : Le Secret des Pharaons
14 / Inherent Vice
15 / Mon beau-père, mes parents et moi
16 / Armageddon
--------------------------------------------------------------------------------5/10-------
17 / Shanghaï Kid 2
18 / Mon beau-père et nous
19 / Le tour du monde en 80 jours
20 / Zoolander
21 / La Nuit au musée 2
22 / Le Manoir Hanté
23 / Les Stagiaires
24 / No Escape
--------------------------------------------------------------------------------4/10-------
25 / Espion et demi
--------------------------------------------------------------------------------3/10-------
26 / Zoolander 2
--------------------------------------------------------------------------------2/10-------
27 / Anaconda, le prédateur

http://www.senscritique.com/top/Les_meilleurs_films_avec_Owen_Wilson/999153

Sylvester Stallone

25. Sylvester Stallone

Annotation :

Moyenne : 6,11/10
----------------------------------------------------------------------------------9/10-------
1 / Rocky
----------------------------------------------------------------------------------8/10-------
2 / Les Gardiens de la Galaxie Vol. 3 ✔
3 / Creed : L'Héritage de Rocky Balboa
4 / Rambo
----------------------------------------------------------------------------------7/10-------
5 / Copland
6 / The Suicide Squad
7 / Les Gardiens de la Galaxie Vol. 2
8 / Rocky Balboa
9 / Rocky II : La Revanche
----------------------------------------------------------------------------------6/10-------
10 / Demolition Man
11 / Creed II
12 / Rambo II : La Mission
13 / Rocky IV ✔
14 / Rocky III : L'Œil du tigre
15 / Tango & Cash
16 / Cliffhanger - Traque au sommet
17 / Évasion
18 / Over the Top, le bras de fer
19 / Cobra
20 / Judge Dredd
----------------------------------------------------------------------------------5/10-------
21 / Daylight
22 / John Rambo
23 / Rambo III
----------------------------------------------------------------------------------4/10-------
24 / Taxi 3
25 / La Course de l'an 2000
26 / Expendables : Unité spéciale
----------------------------------------------------------------------------------3/10-------
27 / Rocky V

http://www.senscritique.com/top/Les_meilleurs_films_avec_Sylvester_Stallone/1212279

Bradley Cooper

26. Bradley Cooper

Annotation :

Moyenne : 6,69/10
----------------------------------------------------------------------------------8/10-------
1 / Licorice Pizza ✔
2 / Nightmare Alley ✔
3 / Avengers : Endgame (voix) ✔
4 / Avengers : Infinity War (voix) ✔
5 / Les Gardiens de la Galaxie Vol. 3 (voix) ✔
6 / Les Gardiens de la Galaxie (voix) ✔
7 / The Place Beyond the Pines
----------------------------------------------------------------------------------7/10-------
8 / Donjons & Dragons - L'Honneur des voleurs ✔
9 / A Star is Born
10 / Les Gardiens de la Galaxie Vol. 2 (voix)
11 / 10 Cloverfield Lane (voix)
12 / La Mule
13 / Very Bad Trip
14 / Happiness Therapy
----------------------------------------------------------------------------------6/10-------
15 / War Dogs
16 / American Sniper
17 / Serial Noceurs
18 / Limitless
19 / Very Bad Trip 2 ✔
20 / American Bluff ✔
21 / Yes Man
22 / Joy ✔
----------------------------------------------------------------------------------5/10-------
23 / Thor : Love and Thunder (voix) ✔
24 / À vif !
25 / L'Agence tous risques
26 / Very Bad Trip 3 ✔

http://www.senscritique.com/top/Les_meilleurs_films_avec_Bradley_Cooper/999393

Harrison Ford

27. Harrison Ford

Annotation :

Moyenne : 6,8/10
----------------------------------------------------------------------------------9/10-------
1 / Blade Runner ✔
2 / Blade Runner 2049 ✔
----------------------------------------------------------------------------------8/10-------
3 / Apocalypse Now
4 / Star Wars : Épisode V - L'Empire contre-attaque
5 / Star Wars : Épisode VI - Le Retour du Jedi
6 / Indiana Jones et la Dernière Croisade
7 / Les Aventuriers de l'arche perdue
8 / Star Wars : Épisode IV - Un nouvel espoir
9 / Indiana Jones et le Temple maudit
----------------------------------------------------------------------------------7/10-------
10 / Mosquito Coast
11 / L'Appel de la Forêt ✔
12 / Star Wars : Le Réveil de la Force
13 / Conversation secrète
14 / Le Fugitif
15 / American Graffiti
16 / Adaline
----------------------------------------------------------------------------------6/10-------
17 / Star Wars : L'Ascension de Skywalker ✔
18 / Légendes Vivantes
19 / L'Ouragan vient de Navarone
20 / La Stratégie Ender
21 / Ennemis Rapprochés
22 / Apparences
----------------------------------------------------------------------------------5/10-------
24 / Indiana Jones et le Royaume du crâne de cristal
23 / Cowboys & Envahisseurs
----------------------------------------------------------------------------------4/10-------
25 / 6 jours 7 nuits
26 / Air Force One

http://www.senscritique.com/top/Les_meilleurs_films_avec_Harrison_Ford/999668

Jim Carrey

28. Jim Carrey

Annotation :

Moyenne : 6,08/10
--------------------------------------------------------------------------------10/10-------
1 / The Truman Show
2 / Eternal Sunshine of the Spotless Mind
----------------------------------------------------------------------------------8/10-------
3 / Man on the Moon
4 / The Majestic
----------------------------------------------------------------------------------7/10-------
5 / The Mask
6 / Disjoncté
7 / Dumb and Dumber
----------------------------------------------------------------------------------6/10-------
8 / Légendes Vivantes (caméo)
9 / Kidding (Série)
10 / Bruce Tout-Puissant
11 / Dumb and Dumber De
12 / Kick-Ass 2 ✔
13 / Yes Man
14 / Menteur, Menteur
15 / Fous d'Irène
16 / Peggy Sue s'est mariée
17 / I Love you Phillip Morris
18 / Pecan Pie (court-métrage)
----------------------------------------------------------------------------------5/10-------
19 / Ace Ventura en Afrique
20 / Sonic, le film
21 / Mr Popper et ses pingouins
22 / Ace Ventura, détective chiens et chats
----------------------------------------------------------------------------------4/10-------
23 / Batman Forever
24 / The Bad Batch
----------------------------------------------------------------------------------3/10-------
25 / Objectif Terrienne
----------------------------------------------------------------------------------2/10-------
26 / Le Nombre 23

http://www.senscritique.com/top/Les_meilleurs_films_avec_Jim_Carrey/999370

Jude Law

29. Jude Law

Acteur

Annotation :

Moyenne : 6,52/10
----------------------------------------------------------------------------------8/10-------
1 / Stalingrad ✔
2 / Bienvenue à Gattaca
3 / Aviator
4 / A.I. Intelligence Artificielle ✔
5 / Sherlock Holmes : Jeu d'Ombres
----------------------------------------------------------------------------------7/10-------
6 / The Grand Budapest Hotel
7 / Le Talentueux Mr. Ripley
8 / Sherlock Holmes
9 / Retour à Cold Mountain
10 / Les Sentiers de la Perdition
11 / Hugo Cabret
12 / Anna Karénine
13 / Le Jeu de la reine ✔
14 / The Nest
----------------------------------------------------------------------------------6/10-------
15 / Les Animaux fantastiques : Les Crimes de Grindelwald ✔
16 / Un jour de pluie à New-York ✔
17 / Captain Marvel ✔
18 / Le Roi Arthur : La Légende d'Excalibur
19 / The Holiday
20 / Closer, entre adultes consentants
21 / L'Imaginarium du Docteur Parnassus
22 / eXistenz
----------------------------------------------------------------------------------5/10-------
23 / Contagion
24 / My Blueberry Nights
25 / Les Animaux fantastiques - Les Secrets de Dumbledore ✔
26 / Spy

http://www.senscritique.com/top/Les_meilleurs_films_avec_Jude_Law/999465

Stellan Skarsgård

30. Stellan Skarsgård

Annotation :

Moyenne : 6,84/10
----------------------------------------------------------------------------------9/10-------
1 / Dune ✔
2 / Dune - Deuxième partie ✔
----------------------------------------------------------------------------------8/10-------
3 / Will Hunting
4 / Millénium : Les Hommes qui n'aimaient pas les femmes
5 / Pirates des Caraïbes : Le Secret du coffre maudit
6 / Andor (Série)
7 / Refroidis
8 / The Painted Bird
9 / Les Révoltés de l'île du Diable
----------------------------------------------------------------------------------7/10-------
10 / L'Homme qui tua Don Quichotte ✔
11 / Avengers : L'Ère d'Ultron ✔
12 / Avengers ✔
13 / Pirates des Caraïbes : Jusqu'au bout du monde
14 / Nymphomaniac : Volume 2
15 / Nymphomaniac : Volume 1
16 / Dancer in the dark
----------------------------------------------------------------------------------6/10-------
17 / Amistad
18 / Melancholia
19 / Cendrillon
20 / Mamma Mia! Here We Go Again
21 / Mamma Mia!
----------------------------------------------------------------------------------5/10-------
22 / Thor : Love and Thunder
23 / Thor ✔
24 / Thor : Le Monde des ténèbres ✔
25 / Le Roi Arthur
26 / Anges & Démons

http://www.senscritique.com/top/Les_meilleurs_films_avec_Stellan_Skarsgard/1283255

Liste vue 13.4K fois

89
19