SensCritique

Top Réalisateurs 2.0

Classement des films par réalisateur, 5 films minimum par réalisateur. Ils sont classés selon le nombre de films visionnés. De plus les réalisateurs avec plus de 9 films sont classés dans un Top 25 selon la moyenne des films donnés.

✔ signifie que j'ai vu le film au cinéma (soit dans ...

Afficher plus

Liste de

176 personnalités

créee il y a plus de 9 ans · modifiée il y a 8 jours

Steven Spielberg

1. Steven Spielberg

Annotation :

Moyenne : 7,4/10 (35/35 - 100%)
--------------------------------------------------------------------------------9/10-------
1 / La Liste de Schindler
2 / Jurassic Park ✔
3 / Il faut sauver le soldat Ryan ✔
4 / Arrête-moi si tu peux
5 / West Side Story ✔
---------------------------------------------------------------------------------8/10-------
6 / Indiana Jones et la Dernière Croisade
7 / Les Aventuriers de l'Arche Perdue
8 / The Fabelmans ✔
9 / La Guerre des mondes ✔
10 / Indiana Jones et le Temple maudit
11 / Ready Player One ✔
12 / Le Monde perdu : Jurassic Park
13 / Minority Report
14 / Les Dents de la mer
15 / Munich
16 / Duel
17 / A.I. Intelligence Artificielle ✔
18 / Le Terminal
---------------------------------------------------------------------------------7/10-------
19 / Rencontre du troisième type
20 / E.T. l'extra-terrestre
21 / Le Pont des Espions
22 / Empire du Soleil
23 / Les Aventures de Tintin : Le Secret de la Licorne ✔
24 / La Couleur Pourpre
25 / Pentagon Papers ✔
26 / Hook ou la revanche du capitaine Crochet
27 / Cheval de guerre
28 / Sugarland Express
---------------------------------------------------------------------------------6/10-------
29 / Lincoln
30 / Amistad
31 / Le BGG
32 / Always - Pour toujours
33 / La Quatrième Dimension
---------------------------------------------------------------------------------5/10-------
34 / 1941
35 / Indiana Jones et le Royaume du crâne de cristal

http://www.senscritique.com/top/Les_meilleurs_films_de_Steven_Spielberg/686903

Ridley Scott

2. Ridley Scott

Annotation :

Moyenne : 6,5/10 (28/28 - 100%)
----------------------------------------------------------------------------------9/10-------
1 / Alien : Le Huitième passager
2 / Blade Runner ✔
3 / Gladiator ✔
4 / Thelma et Louise ✔
----------------------------------------------------------------------------------8/10-------
5 / Le Dernier Duel ✔
6 / La Chute du faucon noir
7 / Seul sur Mars ✔
----------------------------------------------------------------------------------7/10-------
8 / Kingdom of Heaven : Director's Cut ✔
9 / American Gangster
10 / Exodus : Gods and Kings
11 / Tout l'argent du monde
12 / Les Associés
13 / Les Duellistes
14 / Hannibal
15 / House of Gucci ✔
----------------------------------------------------------------------------------6/10-------
16 / Prometheus ✔
17 / Mensonges d'État
18 / 1492 : Christophe Colomb
19 / Napoléon ✔
20 / Lame de fond
21 / Black Rain
22 / Traquée
----------------------------------------------------------------------------------5/10-------
23 / Robin des Bois
24 / Legend
25 / À armes égales
26 / Une grande année
----------------------------------------------------------------------------------4/10-------
27 / Cartel
----------------------------------------------------------------------------------3/10-------
28 / Alien : Covenant ✔

http://www.senscritique.com/top/Les_meilleurs_films_de_Ridley_Scott/999350

Woody Allen

3. Woody Allen

Annotation :

Moyenne : 6,74/10 (23/50 - 46%)
----------------------------------------------------------------------------------9/10-------
1 / Match Point ✔
----------------------------------------------------------------------------------8/10-------
2 / Annie Hall
----------------------------------------------------------------------------------7/10-------
4 / Manhattan
3 / Zelig
5 / Crimes et Délits
6 / Scoop
7 / Maris et Femmes ✔
8 / Meurtre mystérieux à Manhattan
9 / Hannah et ses sœurs
10 / Le Rêve de Cassandre
11 / Blue Jasmine
12 / Magic in the Moonlight
13 / La Rose pourpre du Caire
14 / Café Society
15 / Minuit à Paris
----------------------------------------------------------------------------------6/10-------
16 / Un jour de pluie à New-York ✔
17 / Vicky Cristina Barcelona
18 / Guerre et Amour
19 / Radio Days
20 / Wonder Wheel
21 / L'Homme Irrationnel
22 / Whatever Works
----------------------------------------------------------------------------------5/10-------
23 / Hollywood Ending

https://www.senscritique.com/top/Les_meilleurs_films_de_Woody_Allen/1678332

Robert Zemeckis

4. Robert Zemeckis

Annotation :

Moyenne : 7/10 (21/21 - 100%)
----------------------------------------------------------------------------------9/10-------
1 / Forrest Gump
2 / Retour vers le futur 2 ✔
3 / Retour vers le futur ✔
----------------------------------------------------------------------------------8/10-------
4 / Qui veut la peau de Roger Rabbit ✔
5 / Seul au monde
6 / Retour vers le futur 3 ✔
7 / La mort vous va si bien
----------------------------------------------------------------------------------7/10-------
8 / La Légende de Beowulf
9 / Alliés
10 / Contact
11 / La Grosse Magouille
12 / The Walk - Rêver plus haut
13 / Flight
14 / Crazy Day
15 / Le Drôle de Noël de Scrooge
----------------------------------------------------------------------------------6/10-------
16 / Bienvenue à Marwen
17 / Apparences
18 / Le Pôle Express
19 / À la poursuite du Diamant Vert
----------------------------------------------------------------------------------4/10-------
20 / Sacrées sorcières
21 / Pinocchio

http://www.senscritique.com/top/Les_meilleurs_films_de_Robert_Zemeckis/1125391

Tim Burton

5. Tim Burton

Annotation :

Moyenne : 6,62/10 (21/21 - 100%)
---------------------------------------------------------------------------------8/10-------
1 / Sleepy Hollow, la légende du cavalier sans tête ✔
2 / Edward aux mains d'argent
3 / Batman
4 / Big Fish
5 / Batman : Le Défi
---------------------------------------------------------------------------------7/10-------
6 / Charlie et la Chocolaterie
7 / Sweeney Todd, le diabolique barbier de Fleet Street
8 / Ed Wood
9 / Beetlejuice
10 / Frankenweenie
11 / Vincent
---------------------------------------------------------------------------------6/10-------
12 / La Planète des singes
13 / Les Noces funèbres
14 / Big Eyes
15 / Frankeenweenie (1984)
16 / Mars Attacks !
17 / Pee-Wee Big Adventure
18 / Dumbo
---------------------------------------------------------------------------------5/10-------
19 / Miss Peregrine et les Enfants particuliers
20 / Alice au pays des merveilles
21 / Dark Shadows

http://www.senscritique.com/top/Les_meilleurs_films_de_Tim_Burton/999336

Joel Coen

6. Joel Coen

Annotation :

Moyenne : 7,05/10 (20/20- 100%)
----------------------------------------------------------------------------------9/10-------
1 / No Country for Old Men
----------------------------------------------------------------------------------8/10-------
2 / O'Brother
3 / Fargo
4 / Arizona Junior
5 / True Grit
6 / Miller's Crossing
7 / Barton Fink
8 / The Big Lebowski ✔
----------------------------------------------------------------------------------7/10-------
9 / Sang pour sang ✔
10 / La Ballade de Buster Scruggs
11 / Burn After Reading
12 / The Barber, l'homme qui n'était pas là
13 / Inside Llewyn Davis
14 / Le Grand Saut
----------------------------------------------------------------------------------6/10-------
15 / A Serious Man
16 / Paris, je t'aime (film à sketches)
17 / Intolérable Cruauté
18 / Ladykillers
----------------------------------------------------------------------------------5/10-------
19 / Ave, César !
20 / Macbeth

http://www.senscritique.com/top/Les_meilleurs_films_des_freres_Coen/1168617

Martin Scorsese

7. Martin Scorsese

Annotation :

Moyenne : 7,63/10 (19/28 - 68%)
----------------------------------------------------------------------------------9/10-------
1 / Les Affranchis ✔
2 / Le Loup de Wall Street ✔
3 / Les Infiltrés
4 / Shutter Island
5 / Killers of the Flower Moon ✔
6 / Casino
----------------------------------------------------------------------------------8/10-------
7 / Taxi Driver
8 / Raging Bull
9 / Gangs of New York
10 / Aviator
11 / La Valse des Pantins
----------------------------------------------------------------------------------7/10-------
12 / The Irishman
13 / Les Nerfs à vif
14 / Hugo Cabret
15 / Silence
16 / La Couleur de l'argent ✔
----------------------------------------------------------------------------------6/10-------
17 / Mean Streets
18 / Le grand rasage (court-métrage)
19 / À tombeau ouvert

https://www.senscritique.com/top/Les_meilleurs_films_de_Martin_Scorsese/672220

Clint Eastwood

8. Clint Eastwood

Acteur, compositeur, producteur et réalisateur

Annotation :

Moyenne : 7,28/10 (18/38 - 47%)
----------------------------------------------------------------------------------9/10-------
1 / Impitoyable ✔
----------------------------------------------------------------------------------8/10-------
2 / Gran Torino
3 / Sur la route de Madison
4 / Million Dollar Baby
5 / Mystic River
6 / Un monde parfait
----------------------------------------------------------------------------------7/10-------
7 / Le cas Richard Jewell ✔
8 / Sully
9 / L'Échange
10 / Josey Wales hors-la-loi
11 / Pale Rider, le cavalier solitaire
12 / Lettres d'Iwo Jima
13 / Mémoires de nos pères
14 / La Mule
15 / J. Edgar
16 / Invictus
----------------------------------------------------------------------------------6/10-------
17 / Space Cowboys
18 / American Sniper

http://www.senscritique.com/top/Les_meilleurs_films_de_Clint_Eastwood/999341

Wes Anderson

9. Wes Anderson

Annotation :

Moyenne : 6,89/10 (18/18 - 100%)
----------------------------------------------------------------------------------8/10-------
1 / Fantastic Mr. Fox
2 / Moonrise Kingdom
3 / L'Île aux Chiens ✔
----------------------------------------------------------------------------------7/10-------
4 / The Grand Budapest Hotel
5 / Rushmore
6 / La Merveilleuse Histoire de Henry Sugar (court-métrage)
7 / Come Together (court-métrage)
8 / Hôtel Chevalier (court-métrage)
9 / La Famille Tenenbaum
10 / Tête Brulée
11 / La Vie aquatique
12 / The French Dispatch ✔
13 / Venin (court-métrage)
-----------------------------------------------------------------------------------6/10-------
14 / À bord du Darjeeling Limited
15 / Castello Cavalcanti (court-métrage)
16 / Asteroid City ✔
17 / Le Cygne (court-métrage)
18 / Le Preneur de rats (court-métrage)

https://www.senscritique.com/top/Les_meilleurs_films_de_Wes_Anderson/2087665

Brian De Palma

10. Brian De Palma

Annotation :

Moyenne : 6,94/10 (16/29 - 55%)
---------------------------------------------------------------------------------10/10-------
1 / L'Impasse ✔
----------------------------------------------------------------------------------9/10-------
2 / Blow Out
----------------------------------------------------------------------------------8/10-------
3 / Snake Eyes
4 / Les Incorruptibles
5 / Scarface
6 / Outrages
----------------------------------------------------------------------------------7/10-------
7 / Body Double
8 / Mission : Impossible
9 / Phantom of the Paradise
10 / Le Dahlia Noir
11 / Carrie au bal du diable ✔
----------------------------------------------------------------------------------6/10-------
12 / Pulsions
13 / Le Bûcher des vanités
----------------------------------------------------------------------------------5/10-------
14 / Passion
15 / Raising Cain Re-cut
----------------------------------------------------------------------------------3/10-------
16 / Domino

https://www.senscritique.com/top/Les_meilleurs_films_de_Brian_de_Palma/1568767

Tony Scott

11. Tony Scott

Annotation :

Moyenne : 6,13/10 (16/16 - 100%)
----------------------------------------------------------------------------------8/10-------
1 / True Romance ✔
2 / Les Prédateurs ✔
----------------------------------------------------------------------------------7/10-------
3 / Man on Fire
4 / Le Dernier Samaritain
5 / Ennemi d'état
----------------------------------------------------------------------------------6/10-------
6 / Spy Game, jeu d'espions
7 / Déjà Vu
8 / Top Gun
9 / Unstoppable
10 / USS Alabama
11 / Le Flic de Beverly Hills 2
----------------------------------------------------------------------------------5/10-------
12 / Jours de tonnerre
13 / Le Fan
14 / Revenge
15 / Domino
16 / L'Attaque du Métro 123

https://www.senscritique.com/top/les_meilleurs_films_de_tony_scott/3259251

Michael Bay

12. Michael Bay

Annotation :

Moyenne : 5,73/10 (15/15 - 100%)
----------------------------------------------------------------------------------7/10-------
1 / No Pain No Gain ✔
2 / The Island
3 / Pearl Harbor
4 / 13 Hours
----------------------------------------------------------------------------------6/10-------
5 / Transformers
6 / Rock
7 / Bad Boys
8 / Transformers 3 : La Face cachée de la Lune
9 / Bad Boys II
10 / Armageddon
----------------------------------------------------------------------------------5/10-------
11 / Ambulance
12 / Transformers : L'Âge de l'extinction ✔
13 / Transformers 2 : La Revanche
----------------------------------------------------------------------------------4/10-------
14 / 6 Underground
----------------------------------------------------------------------------------3/10-------
15 / Transformers : The Last Knight

http://www.senscritique.com/top/Les_meilleurs_films_de_Michael_Bay/999313

Sam Raimi

13. Sam Raimi

Annotation :

Moyenne : 6,33/10 (15/15 - 100%)
----------------------------------------------------------------------------------8/10-------
1 / Evil Dead 2
2 / Spider-Man 2
3 / Spider-Man
----------------------------------------------------------------------------------7/10-------
4 / Un plan simple
5 / Spider-Man 3
6 / Evil Dead
7 / Evil Dead 3 : L'Armée des ténèbres
----------------------------------------------------------------------------------6/10-------
8 / Doctor Strange in the Multiverse of Madness ✔
9 / Darkman
10 / Le Monde fantastique d'Oz
11 / Jusqu'en enfer
12 / Mort ou Vif
----------------------------------------------------------------------------------5/10-------
13 / Intuitions
----------------------------------------------------------------------------------4/10-------
14 / Mort sur le gril
15 / Pour l'amour du jeu

https://www.senscritique.com/top/Les_meilleurs_films_de_Sam_Raimi/2552227

Ethan Coen

14. Ethan Coen

Annotation :

Moyenne : 7/10 (14/14 - 100%)
----------------------------------------------------------------------------------9/10-------
1 / No Country for Old Men
----------------------------------------------------------------------------------8/10-------
2 / O'Brother ✔
3/ True Grit
4 / Fargo
5 / The Big Lebowski ✔
----------------------------------------------------------------------------------7/10-------
6 / La Ballade de Buster Scruggs
7 / Burn After Reading
8 / The Barber, l'homme qui n'était pas là
9 / Inside Llewyn Davis
----------------------------------------------------------------------------------6/10-------
10 / A Serious Man
11 / Paris, je t'aime (film à sketches)
12 / Intolérable Cruauté
13 / Ladykillers
----------------------------------------------------------------------------------5/10-------
14 / Ave, César !

http://www.senscritique.com/top/Les_meilleurs_films_des_freres_Coen/1168617

Jean-Jacques Annaud

15. Jean-Jacques Annaud

Annotation :

Moyenne : 6,36/10 (14/14 - 100%)
----------------------------------------------------------------------------------8/10-------
1 / Le Nom de la rose
2 / Stalingrad ✔
----------------------------------------------------------------------------------7/10-------
3 / Or Noir
4 / Coup de tête
5 / Les Ailes du courage ✔
6 / L'Ours
7 / Sept ans au Tibet
8 / La Guerre du feu
9 / Deux Frères
----------------------------------------------------------------------------------6/10-------
10 / Le Dernier Loup
11 / L'Amant
12 / Notre-Dame brûle ✔
----------------------------------------------------------------------------------5/10-------
13 / La Victoire en chantant
----------------------------------------------------------------------------------1/10-------
14 / Sa majesté Minor

https://www.senscritique.com/top/Les_meilleurs_films_de_Jean_Jacques_Annaud/2645790

Luc Besson

16. Luc Besson

Annotation :

Moyenne : 5,93/10 (14/18 - 78%)
----------------------------------------------------------------------------------8/10-------
1 / Léon
2 / Le Cinquième Élément
----------------------------------------------------------------------------------7/10-------
3 / Le Grand Bleu ✔
4 / Nikita
5 / Arthur et les Minimoys ✔
6 / Valérian et la Cité des Mille Planètes ✔
----------------------------------------------------------------------------------6/10-------
7 / The Lady
8 / Jeanne d'Arc
----------------------------------------------------------------------------------5/10-------
9 / Malavita
10 / Arthur et la Vengeance de Maltazard ✔
11 / Lucy
----------------------------------------------------------------------------------4/10-------
12 / Anna
13 / Les Aventures extraordinaires d'Adèle Blanc-Sec
14 / Arthur 3 : La Guerre des deux mondes

https://www.senscritique.com/top/Les_meilleurs_films_de_Luc_Besson/1677926

Peter Jackson

17. Peter Jackson

Annotation :

Moyenne : 7,29/10 (14/14 - 100%)
----------------------------------------------------------------------------------9/10-------
1 / Le Seigneur des Anneaux : Le Retour du roi ✔
2 /Le Seigneur des Anneaux : Les Deux Tours
3 / Le Seigneur des Anneaux : La Communauté de l'anneau ✔
----------------------------------------------------------------------------------8/10-------
4 / King Kong
5 / Forgotten Silver
6 / Braindead
7 / Le Hobbit : Un Voyage inattendu ✔
8 / Le Hobbit : La Désolation de Smaug ✔
----------------------------------------------------------------------------------7/10-------
9 / Lovely Bones
10 / Les Feebles
----------------------------------------------------------------------------------6/10-------
11 / Créatures Célestes
12 / Fantômes contre Fantômes
13 / Le Hobbit : La Bataille des cinq armées ✔
----------------------------------------------------------------------------------3/10-------
14 / Bad Taste

http://www.senscritique.com/top/Les_meilleurs_films_de_Peter_Jackson/999634

Christopher Nolan

18. Christopher Nolan

Monteur, producteur, réalisateur et scénariste

Annotation :

Moyenne : 7,85/10 (13/13 - 100%)
--------------------------------------------------------------------------------9/10-------
1 / Interstellar ✔
2 / The Dark Knight, le chevalier noir
3 / Inception ✔
4 / Le Prestige ✔
----------------------------------------------------------------------------------8/10-------
5 / Oppenheimer ✔
6 / Batman Begins ✔
7 / Memento
8 / The Dark Knight Rises ✔
9 / Dunkerque ✔
10 / Tenet ✔
----------------------------------------------------------------------------------7/10-------
11 / Following, le suiveur
----------------------------------------------------------------------------------6/10-------
12 / Insomnia
----------------------------------------------------------------------------------5/10-------
13 / Doodlebug (court-métrage)

https://www.senscritique.com/top/Les_meilleurs_films_de_Christopher_Nolan/682133

Danny Boyle

19. Danny Boyle

Annotation :

Moyenne : 7,46/10 (13/13 - 100%)
----------------------------------------------------------------------------------10/10------
1 / Slumdog Millionaire ✔
----------------------------------------------------------------------------------9/10-------
2 / 28 jours plus tard
3 / Trainspotting
----------------------------------------------------------------------------------8/10-------
4 / Sunshine
5 / La Plage
----------------------------------------------------------------------------------7/10-------
6 / T2 : Trainspotting
7 / Yesterday ✔
8 / Steve Jobs
9 / 127 Heures
10 / Trance
11 / Une vie moins ordinaire
----------------------------------------------------------------------------------6/10-------
12 / Petits meurtres entre amis
----------------------------------------------------------------------------------6/10-------
13 / Millions

https://www.senscritique.com/top/Les_meilleurs_films_de_Danny_Boyle/1738002

Michel Gondry

20. Michel Gondry

Annotation :

Moyenne : 6,69/10 (13/13 - 100%)
---------------------------------------------------------------------------------10/10-------
1 / Eternal Sunshine of the Spotless Mind
----------------------------------------------------------------------------------8/10-------
2 / La Science des rêves
----------------------------------------------------------------------------------7/10-------
3 / Le Livre des Solutions ✔
4 / Soyez sympas, rembobinez
5 / L'Écume des jours
6 / La Lettre (court-métrage)
----------------------------------------------------------------------------------6/10-------
7 / Human Nature
8 / Microbe & Gasoil ✔
9 / The We and The I
10 / The Green Hornet ✔
11 / Détour
12 / Pecan Pie (court-métrage)
----------------------------------------------------------------------------------5/10-------
13 / Interior Design (court-métrage)

https://www.senscritique.com/top/Les_meilleurs_films_de_Michel_Gondry/1844946

David Fincher

21. David Fincher

Annotation :

Moyenne : 7,83/10 (12/12 - 100%)
--------------------------------------------------------------------------------10/10-------
1 / Seven
----------------------------------------------------------------------------------9/10-------
2 / Fight Club
3 / Gone Girl ✔
----------------------------------------------------------------------------------8/10-------
4 / L'Étrange Histoire de Benjamin Button ✔
5 / Zodiac
6 / Millénium : Les Hommes qui n'aimaient pas les femmes
7 / The Social Network
----------------------------------------------------------------------------------7/10-------
8 / Panic Room
9 / The Game
10 / The Killer
11 / Alien 3
----------------------------------------------------------------------------------6/10-------
12 / Mank

http://www.senscritique.com/top/Les_meilleurs_films_de_David_Fincher/999344

George Miller

22. George Miller

Annotation :

Moyenne : 6,83/10 (12/12 - 100%)
----------------------------------------------------------------------------------9/10-------
1 / Mad Max : Fury Road ✔
----------------------------------------------------------------------------------8/10-------
2 / Furiosa - Une Saga Mad Max ✔
3 / Mad Max 2 : Le Défi
----------------------------------------------------------------------------------7/10-------
4 / Trois mille ans à t'attendre ✔
5 / Mad Max
6 / Lorenzo
7 / Happy Feet 2
----------------------------------------------------------------------------------6/10-------
8 / Les Sorcières d'Eastwick
9 / Mad Max - Au-delà du dôme du tonnerre
10 / Happy Feet ✔
11 / La Quatrième Dimension
----------------------------------------------------------------------------------5/10-------
12 / Babe, le cochon dans la ville

https://www.senscritique.com/top/les_meilleurs_films_de_george_miller/3659415

Guy Ritchie

23. Guy Ritchie

Annotation :

Moyenne : 7,08/10 (12/14 - 86%)
----------------------------------------------------------------------------------8/10-------
1 / Snatch
2 / The Gentlemen ✔
3 / Sherlock Holmes : Jeu d'ombres
4 / Arnaques, crimes et botanique
----------------------------------------------------------------------------------7/10-------
5 / Sherlock Holmes
6 / The Covenant
7 / Aladdin ✔
8 / RockNRolla
9 / Agents très spéciaux - Code U.N.C.L.E.
----------------------------------------------------------------------------------6/10-------
10 / Operation Fortune - Ruse de guerre ✔
11 / Un homme en colère
12 / Le Roi Arthur : La Légende d'Excalibur

https://www.senscritique.com/top/les_meilleurs_films_de_guy_ritchie/3406003

Hayao Miyazaki

24. Hayao Miyazaki

Dessinateur, producteur et réalisateur

Annotation :

Moyenne : 7,25/10 (12/12 - 100%)
----------------------------------------------------------------------------------8/10-------
1 / Princesse Mononoké
2 / Le Château ambulant
3 / Le Château dans le ciel ✔
4 / Nausicaä de la vallée du vent ✔
----------------------------------------------------------------------------------7/10-------
5 / Le Voyage de Chihiro
6 / Porco Rosso
7 / Le Château de Cagliostro
8 / Mon voisin Totoro
9 / Kiki la petite sorcière
10 / Le Garçon et le Héron ✔
----------------------------------------------------------------------------------6/10-------
11 / Ponyo sur la Falaise
12 / Le vent se lève

https://www.senscritique.com/top/Les_meilleurs_films_de_Miyazaki/2010814

M. Night Shyamalan

25. M. Night Shyamalan

Annotation :

Moyenne ; 6,17/10 (12/15 - 80%)
----------------------------------------------------------------------------------8/10-------
1 / Incassable
----------------------------------------------------------------------------------7/10-------
2 / Sixième Sens ✔
3 / Split ✔
4 / Glass ✔
----------------------------------------------------------------------------------6/10-------
5 / Signes
6 / Le Village
7 / The Visit
8 / Knock at the Cabin ✔
9 / Phénomènes
----------------------------------------------------------------------------------5/10-------
10 / Old ✔
11 / After Earth
12 / Le Dernier Maître de l'air

https://www.senscritique.com/top/Les_meilleurs_films_de_M_Night_Shyamalan/2722242

Quentin Dupieux (Mr. Oizo)

26. Quentin Dupieux (Mr. Oizo)

Annotation :

Moyenne : 5,92/10 (12/13 - 92%)
----------------------------------------------------------------------------------8/10-------
1 / Yannick ✔
----------------------------------------------------------------------------------7/10-------
2 / Réalité
3 / Au poste !
----------------------------------------------------------------------------------6/10-------
4 / Incroyable mais vrai ✔
5 / Le Deuxième Acte ✔
6 / Fumer fait tousser ✔
7 / Daaaaaali ! ✔
8 / Mandibules
9 / Le Daim
----------------------------------------------------------------------------------5/10-------
10 / Rubber
11 / Wrong Cops
----------------------------------------------------------------------------------2/10-------
12 / Steak

https://www.senscritique.com/top/les_meilleurs_films_de_quentin_dupieux/3612622

Robert Rodriguez

27. Robert Rodriguez

Annotation :

Moyenne : 6,17/10 (12/21 - 57%)
----------------------------------------------------------------------------------8/10-------
1 / Sin City
----------------------------------------------------------------------------------7/10-------
2 / Alita : Battle Angel ✔
3 / Une Nuit en Enfer
4 / Groom Service (film à sketches)
5 / Planète Terreur
6 / Machete
----------------------------------------------------------------------------------6/10-------
7 / Desperado
8 / Sin City : J'ai tué pour elle
9 / Machete Kills
----------------------------------------------------------------------------------5/10-------
10 / Desperado 2 : Il était une fois au Mexique
11 / The Faculty
----------------------------------------------------------------------------------3/10-------
12 / Spy Kids

https://www.senscritique.com/top/Les_meilleurs_films_de_Robert_Rodriguez/2343400

Ron Howard

28. Ron Howard

Annotation :

Moyenne : 6,67/10 (12/27 - 44%)
----------------------------------------------------------------------------------9/10-------
1 / Rush
----------------------------------------------------------------------------------8/10-------
2 / De l'ombre à la lumière
3 / Un homme d'exception
4 / Apollo 13 ✔
5 / Treize vies
----------------------------------------------------------------------------------6/10-----
6 / Willow
7 / Au coeur de l'océan
8 / Solo : A Star Wars Story
9 / Da Vinci Code
----------------------------------------------------------------------------------5/10-------
10 / Inferno
11 / En direct sur Ed TV
12 / Anges & Démons

https://www.senscritique.com/top/Les_meilleurs_films_de_Ron_Howard/2214308

Guillermo del Toro

29. Guillermo del Toro

Annotation :

Moyenne : 6,6/10 (12/12 - 100%)
----------------------------------------------------------------------------------8/10-------
1 / Le Labyrinthe de Pan
2 / Nightmare Alley ✔
----------------------------------------------------------------------------------7/10-------
3 / La Forme de l'Eau ✔
4 / Pacific Rim ✔
5 / Crimson Peak
6 / L'Échine du diable
----------------------------------------------------------------------------------6/10-------
7 / Pinocchio
8 / Blade II ✔
9 / Hellboy
10 / Cronos
11 / Mimic
----------------------------------------------------------------------------------5/10-------
12 / Hellboy II : Les Légions d'or maudites

https://www.senscritique.com/top/les_meilleurs_films_de_guillermo_del_toro/3669517

James Wan

30. James Wan

Annotation :

Moyenne : 5,91/10 (11/14- 79%)
----------------------------------------------------------------------------------8/10-------
1 / Conjuring : Les Dossiers Warren ✔
----------------------------------------------------------------------------------7/10-------
2 / Saw
----------------------------------------------------------------------------------6/10-------
3 / Fast and Furious 7
4 / Conjuring 2 : Le Cas Enfield
5 / Death Sentence
6 / Insidious
7 / Saw (court-métrage)
----------------------------------------------------------------------------------5/10-------
8 / Malignant ✔
9 / Aquaman
10 / Aquaman et le Royaume perdu
11 / Insidious : Chapitre 2

https://www.senscritique.com/top/Les_meilleurs_films_de_James_Wan/3083585

Liste vue 4.8K fois

27
4