SensCritique

Top Actrices 2.0

Classement des films par acteur,sans prise en compte des films d'animations, 5 films minimum par acteur. Ils sont classés selon le nombre de films visionnés. De plus les acteurs avec plus de 10 films sont classés dans un Top 10 selon la moyenne des films visionnés.

✔ signifie que j'ai ...

Afficher plus

Liste de

537 personnalités

créee il y a plus de 7 ans · modifiée il y a 11 jours

Scarlett Johansson

1. Scarlett Johansson

Annotation :

Moyenne : 6,58/10
----------------------------------------------------------------------------------9/10-------
1 / Her ✔
2 / Le Prestige
3 / Match Point ✔
4 / Jojo Rabbit ✔
----------------------------------------------------------------------------------8/10-------
5 / Avengers : Endgame ✔
6 / Avengers : Infinity War ✔
---------------------------------------------------------------------------------7/10-------
7 / Marriage Story
8 / Scoop
9 / Le Livre de la jungle (voix) ✔
10 / Le Dahlia Noir
11 / Captain America : Civil War ✔
12 / Avengers : L'Ère d'Ultron ✔
13 / Avengers ✔
14 / Under the Skin
15 / The Barber, l'homme qui n'était pas là
16 / Lost in Translation
17 / The Island
18 / Ghost World
19 / L'Homme qui murmurait à l'oreille des chevaux
----------------------------------------------------------------------------------6/10-------
20 / Asteroid City
21 / Captain America : Le Soldat de l'hiver ✔
22 / Vicky Cristina Barcelona
23 / #Chef
24 / Don Jon
25 / Deux Sœurs pour un roi
26 / Ghost in the Shell
-----------------------------------------------------------------------------------5/10-------
27 / Ave, César !
28 / Black Widow
29 / Iron Man 2
30 / Lucy
31 / La Jeune Fille à la Perle
----------------------------------------------------------------------------------4/10-------
32 / Arac Attack, les monstres à huit pattes
----------------------------------------------------------------------------------3/10-------
33 / Maman, je m'occupe des méchants

http://www.senscritique.com/top/Les_meilleurs_films_avec_Scarlett_Johansson/999664

Natalie Portman

2. Natalie Portman

Annotation :

Moyenne : 6,44/10
----------------------------------------------------------------------------------9/10-------
1 / Star Wars : Épisode III - La Revanche des Sith
2 / Léon
----------------------------------------------------------------------------------8/10-------
3 / V pour Vendetta
4 / Star Wars : Épisode I - La Menace fantôme
5 / Heat
6 / Black Swan ✔
7 / Avengers : Endgame (caméo) ✔
----------------------------------------------------------------------------------7/10-------
8 / Star Wars : Épisode II - L'Attaque des clones
9 / Brothers
10 / Ma vie avec John F. Donovan ✔
11 / Retour à Cold Mountain
12 / Hôtel Chevalier (court-métrage)
13 / Jackie
14 / Hesher
15 / Paris, je t'aime
16 / I'm Still Here
----------------------------------------------------------------------------------6/10-------
17 / Annihilation
18 / Deux Sœurs pour un roi
19 / Garden State
20 / À bord du Darjeeling Limited
21 / Mars Attacks !
22 / Closer, entre adultes consentants
23 / Song to Song
----------------------------------------------------------------------------------5/10-------
24 / May December ✔
25 / Thor : Love and Thunder ✔
26 / My Blueberry Nights
27 / Zoolander (caméo)
28 / Thor ✔
29 / Thor : Le Monde des ténèbres ✔
30 / Votre Majesté
----------------------------------------------------------------------------------4/10-------
31 / Knight of Cups
32 / Sex Friends

http://www.senscritique.com/top/Les_meilleurs_films_avec_Natalie_Portman/999638

Cate Blanchett

3. Cate Blanchett

Annotation :

Moyenne : 6,73/10
---------------------------------------------------------------------------------9/10------
1 / Le Seigneur des Anneaux : Le Retour du roi ✔
2 / Le Seigneur des Anneaux : Les Deux Tours
3 / Le Seigneur des Anneaux : La Communauté de l'anneau ✔
---------------------------------------------------------------------------------8/10------
4 / L'Étrange Histoire de Benjamin Button ✔
5 / TÁR ✔
6 / Carol
7 / Nightmare Alley ✔
8 / Le Hobbit : Un Voyage inattendu ✔
9 / Le Hobbit : La Désolation de Smaug ✔
10 / Aviator
11 / Babel
---------------------------------------------------------------------------------7/10------
12 / Hot Fuzz ✔
13 / Le Talentueux Mr. Ripley
14 / Thor : Ragnarok
15 / La Vie aquatique
16 / Blue Jasmine
17 / Elizabeth
18 / Elizabeth : L'Âge d'or
---------------------------------------------------------------------------------6/10------
19 / Don't Look Up : Déni cosmique
20 / Mowgli : La Légende de la jungle (voix)
21 / Le Hobbit : La Bataille des cinq armées ✔
22 / Hanna
23 / Song to Song
24 / Cendrillon
---------------------------------------------------------------------------------5/10------
25 / Intuitions
26 / Robin des Bois
---------------------------------------------------------------------------------4/10------
27 / Indiana Jones et le Royaume du crâne de cristal
28 / Monuments Men
29 / Knight of Cups
30 / Ocean's 8

http://www.senscritique.com/top/Les_meilleurs_films_avec_Cate_Blanchett/999402

Marion Cotillard

4. Marion Cotillard

Annotation :

Moyenne : 6,04/10
----------------------------------------------------------------------------------9/10-------
1 / Inception ✔
----------------------------------------------------------------------------------8/10-------
2 / The Dark Knight Rises ✔
3 / Big Fish
4 / De Rouille et d'Os
----------------------------------------------------------------------------------7/10-------
5 / Juste la fin du monde
6 / Alliés
7 / Annette
8 / La Môme
9 / Un long dimanche de fiançailles
10 / The Immigrant
11 / Minuit à Paris
----------------------------------------------------------------------------------6/10-------
12 / Légendes Vivantes (caméo)
13 / Public Enemies
14 / Mal de pierres
15 / Les Petits Mouchoirs ✔
16 / Dikkenek
----------------------------------------------------------------------------------5/10-------
17 / Taxi
18 / Jeux d'Enfants
19 / Contagion
20 / Une grande année
21 / Rock'n Roll
22 / Macbeth
----------------------------------------------------------------------------------4/10-------
23 / Taxi 2
24 / Taxi 3
25 / Assassin's Creed
----------------------------------------------------------------------------------3/10-------
26 / Astérix & Obélix - L'Empire du milieu

http://www.senscritique.com/top/Les_meilleurs_films_avec_Marion_Cotillard/999657

Tilda Swinton

5. Tilda Swinton

Annotation :

Moyenne : 6,85/10
----------------------------------------------------------------------------------8/10-------
1 / L'Étrange Histoire de Benjamin Button ✔
2 / Avengers : Endgame ✔
3 / La Plage
4 / Okja ✔
5 / Moonrise Kingdom
6 / The War Zone
7 / The Souvenir - Part II ✔
----------------------------------------------------------------------------------7/10-------
8 / Trois mille ans à t'attendre
9 / The Grand Budapest Hotel
10 / Doctor Strange ✔
11 / Le Monde de Narnia : Chapitre 1
12 / Only Lovers Left Alive
13 / Burn After Reading
14 / Vanilla Sky
15 / Snowpiercer - Le Transperceneige
16 / The Killer
17 / Adaptation.
18 / The French Dispatch
19 / We need to talk about Kevin
----------------------------------------------------------------------------------6/10-------
20 / Suspiria
21 / Asteroid City ✔
22 / The Souvenir - Part I ✔
-----------------------------------------------------------------------------------5/10-------
23 / Le Monde de Narnia : Chapitre 2
24 / Le Monde de Narnia : Chapitre 3 ✔
25 / Ave, César !
26 / The Dead Don't Die ✔

http://www.senscritique.com/top/Les_meilleurs_films_avec_Tilda_Swinton/1075071

Helena Bonham Carter

6. Helena Bonham Carter

Annotation :

Moyenne : 6,44/10
--------------------------------------------------------------------------------9/10-------
1 / Fight Club
--------------------------------------------------------------------------------8/10-------
2 / Harry Potter et les Reliques de la Mort : 2ème Partie ✔
3 / Harry Potter et les Reliques de la Mort : 1ème Partie ✔
4 / Big Fish
5 / The Crown (Série)
--------------------------------------------------------------------------------7/10-------
6 / Charlie et la Chocolaterie
7 / Sweeney Todd : Le Diabolique Barbier de Fleet Street
8 / L'Extravagant Voyage du jeune et prodigieux T.S. Spivet
9 / Harry Potter et le Prince de Sang-Mêlé
10 / Chambre avec vue
11 / Une vie ✔
12 / Le Discours d'un Roi
--------------------------------------------------------------------------------6/10-------
13 / Lone Ranger : Naissance d'un Héros
14 / Retour à Howards End
15 / Frankenstein
16 / La Planète des Singes
17 / Cendrillon
18 / Alice de l'autre côté du miroir ✔
19 / Les Misérables
--------------------------------------------------------------------------------5/10-------
20 / Enola Holmes 2
21 / Enola Holmes
22 / Terminator Renaissance
23 / Alice au Pays des Merveilles
24 / Dark Shadows
--------------------------------------------------------------------------------4/10-------
25 / Ocean's 8

http://www.senscritique.com/top/Les_meilleurs_films_avec_Helena_Bonham_Carter/999412

Keira Knightley

7. Keira Knightley

Annotation :

Moyenne : 6,33/10
----------------------------------------------------------------------------------8/10-------
1 / Reviens-moi
2 / Everest ✔
3 / Star Wars : Épisode I - La Menace fantôme
4 / Pirates des Caraïbes : Le Secret du coffre maudit
5 / Pirates des Caraïbes : La Malédiction du Black Pearl
----------------------------------------------------------------------------------7/10-------
6 / Imitation Game
7 / Orgueil et Préjugés
8 / Official Secrets
9 / New York Melody
10 / Pirates des Caraïbes : Jusqu'au bout du monde
11 / Anna Karénine
----------------------------------------------------------------------------------6/10-------
12 / Never Let Me Go
13 / Soie
14 The Duchess
15 / Love Actually
16 / Pirates des Caraïbes : La Vengeance de Salazar ✔
----------------------------------------------------------------------------------5/10-------
17 / Le Roi Arthur
18 / Joue-la comme Beckham
19 / A Dangerous Method
20 / Domino
21 / Girls Only
22 / Casse-Noisette et les Quatre Royaumes
23 / The Ryan Initiative
24 / Last Night

http://www.senscritique.com/top/Les_meilleurs_films_avec_Keira_Knightley/999406

Frances McDormand

8. Frances McDormand

Annotation :

Moyenne : 6,81/10
----------------------------------------------------------------------------------8/10-------
1 / 3 Billboards, les panneaux de la vengeance ✔
2 / Fargo
3 / Arizona Junior
4 / Moonrise Kingdom
5 / Mississippi Burning
6 / Barton Fink
7 / Miller's Crossing
----------------------------------------------------------------------------------7/10-------
8 / Sang pour Sang ✔
9 / Peur Primale
10 / The French Dispatch ✔
11 / Nomadland
12 / Burn After Reading
13 / The Barber, l'homme qui n'était pas là
14 / Presque célèbre
----------------------------------------------------------------------------------6/10-------
15 / Darkman
16 / Lone Star
17 / Wonder Boys
18 / Transformers 3 : La Face cachée de la Lune
----------------------------------------------------------------------------------5/10-------
19 / Ave, César !
20 / Macbeth
----------------------------------------------------------------------------------5/10-------
21 / Women Talking ✔

https://www.senscritique.com/top/Les_meilleurs_films_avec_Frances_Mc_Dormand/1605275

Julianne Moore

9. Julianne Moore

Annotation :

Moyenne : 6,52/10
----------------------------------------------------------------------------------9/10-------
1 / Boogie Nights
----------------------------------------------------------------------------------8/10-------
2 / Le Monde perdu : Jurassic Park
3 / Magnolia
4 / Les Fils de l'Homme
5 / The Big Lebowski
6 / Loin du Paradis
----------------------------------------------------------------------------------7/10-------
7 / Le Fugitif
8 / Safe
9 / Hannibal
10 / Kingsman : Le Cercle d'or ✔
11 / Crazy Stupid Love
----------------------------------------------------------------------------------6/10-------
12 / Don Jon
13 / Hunger Games : La Révolte, partie 2 ✔
14 / Hunger Games : La Révolte, partie 1 ✔
15 / Bienvenue à Suburbicon
16 / Blindness
----------------------------------------------------------------------------------5/10-------
17 / May December
18 / Évolution
19 / Darkside, les contes de la nuit noire
----------------------------------------------------------------------------------4/10-------
20 / La Femme à la fenêtre
21 / Carrie, la vengeance

http://www.senscritique.com/top/Les_meilleurs_films_avec_Julianne_Moore/999419

Kristen Stewart

10. Kristen Stewart

Annotation :

Moyenne : 5,86/10
----------------------------------------------------------------------------------8/10-------
1 / Into the Wild
----------------------------------------------------------------------------------7/10-------
2 / Panic Room
3 / Spencer
4 / Underwater
5 / Adventureland, job d'été à éviter
6 / Sur la route
7 / Café Society
8 / Un jour dans la vie de Billy Lynn
9 / The Guard
----------------------------------------------------------------------------------6/10-------
10 / Love Lies Bleeding
11 / Jumper
12 / Ma belle-famille, Noël et moi
13 / Zathura, une aventure spatiale
----------------------------------------------------------------------------------5/10-------
14 / Twilight : Chapitre 1 - Fascination ✔
15 / Blanche-Neige et le Chasseur ✔
16 / American Ultra
17 / Twilight : Chapitre 2 - Tentation
----------------------------------------------------------------------------------4/10-------
18 / Twilight: Chapitre 5 - Révélation, 2e partie
19 / Twilight : Chapitre 3 - Hésitation
20 / Charlie's Angels
----------------------------------------------------------------------------------3/10-------
21 / Twilight : Chapitre 4 - Révélation, 1ère partie

http://www.senscritique.com/top/Les_meilleurs_films_avec_Kristen_Stewart/999087

Sigourney Weaver

11. Sigourney Weaver

Annotation :

Moyenne : 7,05/10
---------------------------------------------------------------------------------9/10------
1 / Avatar ✔
2 / Avatar - La Voie de l'eau ✔
3 / Alien : Le Huitième passager
---------------------------------------------------------------------------------8/10------
4 / Aliens : Le Retour
5 / Annie Hall (caméo)
6 / Quelques minutes après minuit
---------------------------------------------------------------------------------7/10------
7 / S.O.S Fantômes
8 / Exodus : Gods and Kings
9 / La Cabane dans les bois
10 / Galaxy Quest
11 / Soyez sympas, rembobinez
12 / Alien 3
13 / L'Année de tous les dangers
14 / Alien : La Résurrection
---------------------------------------------------------------------------------6/10------
15 / Gorilles dans la brume
16 / S.O.S. Fantômes - L'héritage (caméo) ✔
17 / S.O.S Fantômes 2
18 / 1492 : Christophe Colomb
19 / Chappie
20 / Le Village
---------------------------------------------------------------------------------5/10------
21 / Paul

http://www.senscritique.com/top/Les_meilleurs_films_avec_Sigourney_Weaver/999560

Emma Stone

12. Emma Stone

Annotation :

Moyenne : 6,55/10
---------------------------------------------------------------------------------10/10-------
1 / La La Land ✔
----------------------------------------------------------------------------------9/10-------
2 / Maniac (Série)
----------------------------------------------------------------------------------8/10-------
3 / Birdman
----------------------------------------------------------------------------------7/10-------
4 / Pauvres Créatures ✔
5 / La Couleur des sentiments
7 / La Favorite
8 / Battle of the Sexes
9 / Bienvenue à Zombieland
10 / SuperGrave
11 / Cruella
12 / Crazy, Stupid, Love
----------------------------------------------------------------------------------6/10-------
13 / Retour à Zombieland
14 / The Amazing Spider-Man : Le Destin d'un héros ✔
15 / The Amazing Spider-Man
16 / Easy Girl
17 / L'Homme irrationnel
18 / Gangster Squad
----------------------------------------------------------------------------------3/10-------
19 / My Movie Project
----------------------------------------------------------------------------------2/10-------
20 / Super Blonde

http://www.senscritique.com/top/Les_meilleurs_films_avec_Emma_Stone/999360

Judi Dench

13. Judi Dench

Annotation :

Moyenne : 6,2/10
----------------------------------------------------------------------------------9/10-------
1 / Casino Royale
2 / Skyfall ✔
----------------------------------------------------------------------------------8/10-------
3 / Hamlet
4 / GoldenEye
----------------------------------------------------------------------------------7/10-------
5 / Orgueil et Préjugés
6 / Chambre avec vue
7 / Belfast
8 / Indian Palace ✔
----------------------------------------------------------------------------------6/10-------
9 / Shakespeare in Love
10 / Pirates des Caraïbes : La Fontaine de Jouvence ✔
11 / Quantum of Solace
12 / Demain ne meurt jamais
13 / Le monde ne suffit pas
14 / Le Crime de l'Orient-Express
15 / Chocolat
----------------------------------------------------------------------------------5/10-------
16 / Miss Peregrine et les Enfants particuliers
17 / Les Chroniques de Riddick
----------------------------------------------------------------------------------4/10-------
18 / Meurs un autre jour
----------------------------------------------------------------------------------3/10-------
19 / Artemis Fowl
20 / Cats

https://www.senscritique.com/top/Les_meilleurs_films_avec_Judi_Dench/1686876

Kate Winslet

14. Kate Winslet

Annotation :

Moyenne : 6,5/10
---------------------------------------------------------------------------------10/10-------
1 / Eternal Sunshine of the Spotless Mind
----------------------------------------------------------------------------------9/10-------
2 / Avatar - La Voie de l'eau ✔
3 / Titanic
----------------------------------------------------------------------------------8/10-------
4 / La vie de David Gale
5 / Hamlet
6 / The Reader
----------------------------------------------------------------------------------7/10-------
7 / Little Children
8 / Steve Jobs
9 / Les Noces Rebelles
10 / Carnage
----------------------------------------------------------------------------------6/10-------
11 / Créatures Célestes
12 / Neverland
13 / Wonder Wheel
14 / The Holiday
----------------------------------------------------------------------------------5/10-------
15 / Triple 9
16 / Divergente
17 / Contagion
----------------------------------------------------------------------------------4/10-------
18 / Divergente 2 : L'insurrection ✔
19 / Raison et Sentiments
----------------------------------------------------------------------------------3/10-------
20 / My Movie Project

http://www.senscritique.com/top/Les_meilleurs_films_avec_Kate_Winslet/999656

Nicole Kidman

15. Nicole Kidman

Annotation :

Moyenne : 6,25/10
----------------------------------------------------------------------------------9/10-------
1 / The Northman ✔
2 / Big Little Lies (Série)
3 / Lion
----------------------------------------------------------------------------------7/10-------
4 / Eyes Wide Shut
5 / Prête à tout
6 / Birth
7 / Retour à Cold Mountain
8 / Mise à mort du cerf sacré
9 / Stoker
----------------------------------------------------------------------------------6/10-------
10 / Moulin Rouge !
11 / Les Autres
12 / Scandale
13 / Paddington
14 / À la croisée des mondes : La Boussole d'or
----------------------------------------------------------------------------------5/10-------
15 / Jours de tonnerre
16 / Hollywood 1953
17 / Aquaman
18 / Australia
19 / Aquaman et le Royaume perdu
----------------------------------------------------------------------------------4/10-------
20 / Batman Forever

https://www.senscritique.com/top/Les_meilleurs_films_avec_Nicole_Kidman/2044231

Kirsten Dunst

16. Kirsten Dunst

Annotation :

Moyenne : 7,52/10
---------------------------------------------------------------------------------10/10-------
1 / Eternal Sunshine of the Spotless Mind
----------------------------------------------------------------------------------9/10-------
2 / Civil War ✔
----------------------------------------------------------------------------------8/10-------
2 / Entretien avec un Vampire
3 / Spider-Man 2
4 / Spider-Man
----------------------------------------------------------------------------------7/10-------
5 / The Power of Dog
6 / Jumanji
7 / Fargo : Saison 3 (Série)
8 / Spider-Man 3
9 / Fight for Your Rights Revisited
10 / Virgin Suicides
11 / Sur la route
12 / Les Figures de l'ombre
13 / Marie-Antoinette
14 / Les Quatre Filles du docteur March
----------------------------------------------------------------------------------6/10-------
15 / Légendes vivantes (caméo)
16 / Melancholia
17 / Small Soldiers
18 / Midnight Special
19 / Upside Down

https://www.senscritique.com/top/Les_meilleurs_films_avec_Kirsten_Dunst/999411

Emma Thompson

17. Emma Thompson

Annotation :

Moyenne : 6,37/10
----------------------------------------------------------------------------------8/10-------
1 / Harry Potter et les Reliques de la Mort : 2ème partie ✔
2 / Harry Potter et le Prisonnier d'Azkaban
3 / Au nom du père
4 / Years and Years (Série)
----------------------------------------------------------------------------------7/10-------
5 / Beaucoup de bruit pour rien
6 / Les Vestiges du jour
7 / Good Morning England
8 / Cruella
9 / Men in Black 3
----------------------------------------------------------------------------------6/10-------
10 / Love Actually
11 / Retour à Howards End
12 / Une éducation
13 / La Belle et la Bête
14 / Dans l'ombre de Mary - La Promesse de Walt Disney
----------------------------------------------------------------------------------5/10-------
15 / Dead Again
16 / Men in Black : International
17 / À vif !
18 / Nanny McPhee
-----------------------------------------------------------------------------------4/10-------
19 / Raison et Sentiments

http://www.senscritique.com/top/Les_meilleurs_films_avec_Emma_Thompson/1232332

Laura Dern

18. Laura Dern

Annotation :

Moyenne : 6,58/10
----------------------------------------------------------------------------------9/10-------
1 / Jurassic Park ✔
----------------------------------------------------------------------------------8/10-------
2 / Big Little Lies (Série)
3 / Les Filles du Docteur March ✔
4 / Un monde parfait
----------------------------------------------------------------------------------7/10-------
5 / Blue Velvet
6 / Marriage Story
7 / Le Fondateur
8 / 99 Homes
9 / Fight for Your Right Revisited (court-métrage)
10 / The Master
----------------------------------------------------------------------------------6/10-------
11 / Star Wars : Les Derniers Jedi ✔
12 / Sailor et Lula
13 / Wild
14 / Downsizing
15 / Nos étoiles contraires
----------------------------------------------------------------------------------5/10-------
16 / The Son
17 / Jurassic World - Le Monde d'après ✔
18 / Coeurs Perdus
19 / Mon beau-père et nous

https://www.senscritique.com/top/Les_meilleurs_films_avec_Laura_Dern/2287503

Rachel McAdams

19. Rachel McAdams

Annotation :

Moyenne : 6,37/10
----------------------------------------------------------------------------------8/10-------
1 / Il était temps
2 / Sherlock Holmes : Jeu d'ombres
----------------------------------------------------------------------------------7/10-------
3 / Sherlock Holmes
4 / N'oublie jamais
5 / Doctor Strange ✔
6 / True Detective : Saison 2 (Série)
7 / La Rage au ventre
8 / Minuit à Paris
----------------------------------------------------------------------------------6/10-------
9 / Doctor Strange in the Multiverse of Madness ✔
10 / Serial Noceurs
11 / Spotlight
12 / Game Night
13 / Red Eye : Sous haute pression
14 / Jeux de pouvoir
15 / Lolita malgré moi
----------------------------------------------------------------------------------5/10-------
16 / Passion
17 / Á la merveille
18 / Je te promets
19 / Every Thing will be Fine

http://www.senscritique.com/top/Les_meilleurs_films_avec_Rachel_Mc_Adams/1216463

Amy Adams

20. Amy Adams

Annotation :

Moyenne : 6,44/10
----------------------------------------------------------------------------------9/10-------
1 / Her ✔
----------------------------------------------------------------------------------8/10-------
2 / Arrête-moi si tu peux
3 / Premier Contact ✔
----------------------------------------------------------------------------------7/10-------
4 / Nocturnal Animals
5 / Vice
6 / Man of Steel ✔
7 / Batman v Superman : L'Aube de la Justice
8 / The Master
9 / Sur la route
----------------------------------------------------------------------------------6/10-------
10 / Big Eyes
11 / Fighter
12 / Zack Snyder's Justice League
13 / Ricky Bobby, roi du circuit
14 / American Bluff
----------------------------------------------------------------------------------5/10-------
15 / La Nuit au musée 2
16 / Il était une fois
17 / Les Muppets : Le Retour
----------------------------------------------------------------------------------4/10-------
18 / La Femme à la fenêtre

https://www.senscritique.com/top/Les_meilleurs_films_avec_Amy_Adams/1529423

Rosario Dawson

21. Rosario Dawson

Annotation :

Moyenne : 6/10
----------------------------------------------------------------------------------8/10-------
1 / Dopesick (Série)
2 / Boulevard de la mort
3 / Daredevil (Série)
----------------------------------------------------------------------------------7/10-------
4 / Sin City
5 / Alexandre
6 / Sept Vies
7 / Jessica Jones (Série)
8 / Trance
9 / La 25ème Heure
----------------------------------------------------------------------------------6/10-------
10 / Sin City : J'ai tué pour elle
11 / Retour à Zombieland
12 / Unstoppable
13 / Clerks II
14 / Luke Cage (Série)
15 / Bienvenue dans la jungle
----------------------------------------------------------------------------------5/10-------
16 / Men in Black II
17 / Le Manoir Hanté
18 / Percy Jackson : Le Voleur de foudre

http://www.senscritique.com/top/Les_meilleurs_films_avec_Rosario_Dawson/1156037

Catherine Keener

22. Catherine Keener

Annotation :

Moyenne : 6,71/10
----------------------------------------------------------------------------------8/10-------
1 / Into the Wild
2 / Get Out ✔
3 / Capitaine Phillips ✔
4 / Dans la peau de John Malkovich
----------------------------------------------------------------------------------7/10-------
5 / 8 mm
6 / An American Crime
7 / Adaptation.
8 / Hors d'atteinte
9 / Sicario La Guerre des cartels
10 / New York Melody
11 / Le Soliste
----------------------------------------------------------------------------------6/10-------
12 / Kidding (Série)
13 / Max et les Maximonstres
14 / Bad Grandpa
----------------------------------------------------------------------------------5/10-------
15 / Cyrus
16 / 40 ans, toujours puceau
17 / Percy Jackson : Le Voleur de foudre

Charlize Theron

23. Charlize Theron

Annotation :

Moyenne : 6,06/10
----------------------------------------------------------------------------------9/10-------
1 / Mad Max : Fury Road ✔
----------------------------------------------------------------------------------8/10-------
2 / The Yards
3 / L'Associé du diable
----------------------------------------------------------------------------------7/10-------
4 / Monster
5 / La Route
----------------------------------------------------------------------------------6/10-------
6 / Prometheus ✔
7 / Doctor Strange in the Multiverse of Madness ✔
8 / Scandale
9 / Atomic Blonde
10 / Hancock
11 / Albert à l'Ouest
----------------------------------------------------------------------------------5/10-------
12 / Braquage à l'Italienne
13 / Blanche-Neige et le Chasseur ✔
14 / Le Chasseur et la Reine des glaces
15 / Fast and Furious 8
----------------------------------------------------------------------------------4/10-------
16 / Fast and Furious X ✔
17 / Fast and Furious 9 ✔

https://www.senscritique.com/top/Les_meilleurs_films_avec_Charlize_Theron/1863917

Rachel Weisz

24. Rachel Weisz

Annotation :

Moyenne : 6,11/10
---------------------------------------------------------------------------------8/10-------
1 / Stalingrad ✔
----------------------------------------------------------------------------------7/10-------
2 / The Lobster
3 / The Constant Gardener
4 / Lovely Bones
5 / La Favorite
6 / Youth
7 / The Fountain
----------------------------------------------------------------------------------6/10-------
8 / La Momie
9 / Agora
10 / Une vie entre deux océans
11 / Le Procès du siècle
12 / Le Monde fantastique d'Oz
13 / Le Retour de la Momie
----------------------------------------------------------------------------------5/10-------
14 / Jason Bourne : L'Héritage
15 / Black Widow
16 / My Blueberry Nights
----------------------------------------------------------------------------------3/10-------
17 / Eragon

http://www.senscritique.com/top/Les_meilleurs_films_avec_Rachel_Weisz/1239265

Elizabeth Banks

25. Elizabeth Banks

Annotation :

Moyenne : 6,13/10
----------------------------------------------------------------------------------9/10-------
1 / Arrête-moi si tu peux
----------------------------------------------------------------------------------8/10-------
2 / Spider-Man
----------------------------------------------------------------------------------7/10-------
3 / Hunger Games : L'Embrasement ✔
4 / Spider-Man 2
5 / Spider-Man 3
----------------------------------------------------------------------------------6/10-------
6 / Hunger Games : La Révolte, partie 2 ✔
7 / Hunger Games
8 / Hunger Games : La Révolte, partie 1 ✔
9 / Love & Mercy
10 / Horribilis
11 / The Hit Girls
12 / Les Grands Frères
----------------------------------------------------------------------------------5/10-------
13 / Pitch Perfect 2
14 / 40 ans, toujours puceau
----------------------------------------------------------------------------------4/10-------
15 / Charlie's Angels
16 / Appelez-moi Dave

http://www.senscritique.com/top/Les_meilleurs_films_avec_Elizabeth_Banks/1259184

Gwyneth Paltrow

26. Gwyneth Paltrow

Annotation :

Moyenne : 6,56/10
---------------------------------------------------------------------------------10/10-------
1 / Seven
---------------------------------------------------------------------------------8/10-------
2 / Avengers : Endgame ✔
3 / Avengers : Infinity War ✔
----------------------------------------------------------------------------------7/10-------
2 / Avengers : Endgame ✔
3 / Avengers : Infinity War ✔
4 / Iron Man
5 / Avengers ✔
6 / Le Talentueux Mr. Ripley
7 / Hook ou la revanche du capitaine Crochet
8 / La Famille Tenenbaum
----------------------------------------------------------------------------------6/10-------
9 / Two Lovers
10 / Shakespeare in Love
11 / Spider-Man : Homecoming
12 / Iron Man 3 ✔
13 / Double Mise
14 / L'Amour extra large
----------------------------------------------------------------------------------5/10-------
15 / Iron Man 2
16 / Contagion

http://www.senscritique.com/top/Les_meilleurs_films_avec_Gwyneth_Paltrow/999157

Helen Mirren

27. Helen Mirren

Annotation :

Moyenne : 6/10
----------------------------------------------------------------------------------8/10-------
1 / Excalibur ✔
2 / Le Cuisinier, le Voleur, sa femme et son amant
----------------------------------------------------------------------------------7/10-------
3 / Mosquito Coast
4 / The Pledge
5 / Dalton Trumbo
6 / Barbie (voix)
----------------------------------------------------------------------------------6/10-------
7 / Jeux de pouvoir
8 / Benjamin Gates et le Livre des secrets
9 / H2G2 : Le Guide du voyageur galactique
10 / Fast & Furious : Hobbs & Shaw
----------------------------------------------------------------------------------5/10-------
11 / Fast and Furious 8
12 / Red
13 / Casse-Noisette et les Quatre Royaumes
----------------------------------------------------------------------------------4/10-------
14 / Anna
15 / Fast and Furious X ✔
16 / Fast and Furious 9 ✔

https://www.senscritique.com/top/Les_meilleurs_films_avec_Helen_Mirren/2677598

Jena Malone

28. Jena Malone

Annotation :

Moyenne : 6,4/10
----------------------------------------------------------------------------------8/10-------
1 / Into the Wild
2 / Hunger Games : L'Embrasement ✔
----------------------------------------------------------------------------------7/10-------
3 / Hitler, la naissance du mal
4 / Retour à Cold Mountain
5 / Orgueil et Préjugés
6 / Donnie Darko
7 / Contact
8 / Hunger Games : La Révolte, partie 2 ✔
9 / Hunger Games : La Révolte, partie 1 ✔
----------------------------------------------------------------------------------6/10-------
10 / Love Lies Bleeding
11 / Lorelei
12 / Inherent Vice
----------------------------------------------------------------------------------5/10-------
13 / Sucker Punch
14 / Pour l'amour du jeu
----------------------------------------------------------------------------------3/10-------
15 / Rebel Moon : Partie 1 - Enfant du Feu
----------------------------------------------------------------------------------2/10-------
16 / Rebel Moon : Partie 2 - L'Entailleuse

Lois Maxwell

29. Lois Maxwell

Annotation :

Moyenne : 6,38/10
----------------------------------------------------------------------------------8/10-------
1 / Lolita
----------------------------------------------------------------------------------7/10-------
2 / On ne vit que deux fois
3 / Goldfinger
4 / Opération Tonnerre
5 / James Bond Contre Dr. No
6 / Au service secret de sa majesté
7 / L'Homme au Pistolet d'or
----------------------------------------------------------------------------------6/10-------
8 / La Maison du Diable
9 / Rien que pour vos yeux
10 / L'Espion qui m'aimait
11 / Dangereusement vôtre
12 / Moonraker
13 / Les Diamants sont éternels
14 / Bons Baisers de Russie
----------------------------------------------------------------------------------5/10-------
15 / Octopussy
16 / Vivre et laisser mourir

Margot Robbie

30. Margot Robbie

Annotation :

Moyenne : 6,56/10
--------------------------------------------------------------------------------9/10-------
1 / Babylon ✔
2 / Le Loup de Wall Street ✔
--------------------------------------------------------------------------------8/10-------
3 / Once Upon a Time in... Hollywood ✔
4 / Il était temps
5 / The Big Short : Le Casse du siècle
--------------------------------------------------------------------------------7/10-------
6 / Moi, Tonya
7 / The Suicide Squad
8 / Barbie ✔
--------------------------------------------------------------------------------6/10-------
9 / Asteroid City
10 / Scandale
11 / Marie, Stuart, Reine d'Écosse
12 / Diversion
--------------------------------------------------------------------------------5/10-------
13 / Amsterdam
14 / Birds of Prey (et la fantabuleuse histoire de Harley Quinn) ✔
15 / Tarzan
--------------------------------------------------------------------------------3/10-------
16 / Suicide Squad

https://www.senscritique.com/top/Les_meilleurs_films_avec_Margot_Robbie/2616151

Liste vue 6.4K fois

15