👉 1er juillet : Les extraits de commentaires sont à nouveau disponibles dans les feeds 🥳.
Et toutes les mises à jours sont à retrouver ici : journal de bord de SensCritique.

Top Actrices 2.0

Classement des films par acteur,sans prise en compte des films d'animations, 5 films minimum par acteur. Ils sont classés selon le nombre de films visionnés. De plus les acteurs avec plus de 10 films sont classés dans un Top 10 selon la moyenne des films visionnés.

✔ signifie que j'ai ...

Afficher plus

Liste de

438 personnalités

créee il y a plus de 5 ans

 · 

modifiée il y a 8 jours

1. Natalie Portman

Actrice, artiste musicale, autrice, réalisatrice, productrice et scénariste

Annotation :

Moyenne : 6,57/10
----------------------------------------------------------------------------------9/10-------
1 / Star Wars : Épisode III - La Revanche des Sith
2 / Léon
----------------------------------------------------------------------------------8/10-------
3 / V pour Vendetta
4 / Star Wars : Épisode I - La Menace fantôme
5 / Heat
6 / Black Swan ✔
7 / Avengers : Endgame (caméo) ✔
----------------------------------------------------------------------------------7/10-------
8 / Star Wars : Épisode II - L'Attaque des clones
9 / Brothers
10 / Ma vie avec John F. Donovan ✔
11 / Retour à Cold Mountain
12 / Hôtel Chevalier (court-métrage)
13 / Jackie
14 / Hesher
15 / Paris, je t'aime
16 / I'm Still Here
----------------------------------------------------------------------------------6/10-------
17 / Annihilation
18 / Thor : Le Monde des ténèbres ✔
19 / Deux Sœurs pour un roi
20 / Garden State
21 / À bord du Darjeeling Limited
22 / Mars Attacks !
23 / Closer, entre adultes consentants
24 / Song to Song
----------------------------------------------------------------------------------5/10-------
25 / My Blueberry Nights
26 / Zoolander (caméo)
27 / Thor ✔
28 / Votre Majesté
----------------------------------------------------------------------------------4/10-------
29 / Knight of Cups
30 / Sex Friends

http://www.senscritique.com/top/Les_meilleurs_films_avec_Natalie_Portman/999638

2. Scarlett Johansson

Actrice, artiste musicale, réalisatrice, productrice et scénariste

Annotation :

Moyenne : 6,6/10
----------------------------------------------------------------------------------9/10-------
1 / Her ✔
2 / Le Prestige
3 / Match Point ✔
4 / Jojo Rabbit ✔
----------------------------------------------------------------------------------8/10-------
5 / Avengers : Endgame ✔
6 / Avengers : Infinity War ✔
---------------------------------------------------------------------------------7/10-------
7 / Marriage Story
8 / Scoop
9 / Le Livre de la jungle (voix) ✔
10 / Captain America : Civil War ✔
11 / Avengers : L'Ère d'Ultron ✔
12 / Avengers ✔
13 / Captain America : Le Soldat de l'hiver ✔
14 / The Barber, l'homme qui n'était pas là
15 / Lost in Translation
16 / The Island
17 / Ghost World
18 / L'Homme qui murmurait à l'oreille des chevaux
----------------------------------------------------------------------------------6/10-------
19 / Vicky Cristina Barcelona
20 / #Chef
21 / Don Jon
22 / Deux Sœurs pour un roi
23 / Ghost in the Shell
-----------------------------------------------------------------------------------5/10-------
24 / Ave, César !
25 / Black Widow
26 / Iron Man 2
27 / Lucy
28 / La Jeune Fille à la Perle
----------------------------------------------------------------------------------4/10-------
29 / Arac Attack, les monstres à huit pattes
----------------------------------------------------------------------------------3/10-------
30 / Maman, je m'occupe des méchants

http://www.senscritique.com/top/Les_meilleurs_films_avec_Scarlett_Johansson/999664

3. Cate Blanchett

Actrice et productrice

Annotation :

Moyenne : 6,76/10
---------------------------------------------------------------------------------9/10------
1 / Le Seigneur des Anneaux : Le Retour du roi ✔
2 / Le Seigneur des Anneaux : Les Deux Tours
3 / Le Seigneur des Anneaux : La Communauté de l'anneau ✔
---------------------------------------------------------------------------------8/10------
4 / L'Étrange Histoire de Benjamin Button ✔
5 / Carol
6 / Nightmare Alley ✔
7 / Le Hobbit : Un Voyage inattendu ✔
8 / Le Hobbit : La Désolation de Smaug ✔
9 / Aviator
10 / Babel
---------------------------------------------------------------------------------7/10------
11 / Hot Fuzz ✔
12 / Le Talentueux Mr. Ripley
13 / Thor : Ragnarok
14 / La Vie aquatique
15 / Blue Jasmine
16 / Elizabeth
17 / Elizabeth : L'Âge d'or
---------------------------------------------------------------------------------6/10------
18 / Don't Look Up : Déni cosmique
19 / Mowgli : La Légende de la jungle (voix)
20 / Le Hobbit : La Bataille des cinq armées ✔
21 / Hanna
22 / Song to Song
23 / Cendrillon
24 / Indiana Jones et le Royaume du crâne de cristal
---------------------------------------------------------------------------------5/10------
25 / Intuitions
26 / Robin des Bois
---------------------------------------------------------------------------------4/10------
27 / Monuments Men
28 / Knight of Cups
29 / Ocean's 8

http://www.senscritique.com/top/Les_meilleurs_films_avec_Cate_Blanchett/999402

4. Marion Cotillard

Actrice, artiste musicale et productrice

Annotation :

Moyenne : 6,16/10
----------------------------------------------------------------------------------9/10-------
1 / Inception ✔
----------------------------------------------------------------------------------8/10-------
2 / The Dark Knight Rises ✔
3 / Big Fish
4 / De Rouille et d'Os
----------------------------------------------------------------------------------7/10-------
5 / Juste la fin du monde
6 / Alliés
7 / Annette
8 / La Môme
9 / Un long dimanche de fiançailles
10 / The Immigrant
11 / Minuit à Paris
----------------------------------------------------------------------------------6/10-------
12 / Légendes Vivantes (caméo)
13 / Public Enemies
14 / Mal de pierres
15 / Les Petits Mouchoirs ✔
16 / Dikkenek
----------------------------------------------------------------------------------5/10-------
17 / Taxi
18 / Jeux d'Enfants
19 / Contagion
20 / Une grande année
21 / Rock'n Roll
22 / Macbeth
----------------------------------------------------------------------------------4/10-------
23 / Taxi 2
24 / Taxi 3
25 / Assassin's Creed

http://www.senscritique.com/top/Les_meilleurs_films_avec_Marion_Cotillard/999657

5. Helena Bonham Carter

Actrice et artiste musicale

Annotation :

Moyenne : 6,48/10
--------------------------------------------------------------------------------9/10-------
1 / Fight Club
--------------------------------------------------------------------------------8/10-------
2 / Harry Potter et les Reliques de la Mort : 2ème Partie ✔
3 / Harry Potter et les Reliques de la Mort : 1ème Partie ✔
4 / Big Fish
5 / The Crown (Série)
--------------------------------------------------------------------------------7/10-------
6 / Charlie et la Chocolaterie
7 / Sweeney Todd : Le Diabolique Barbier de Fleet Street
8 / L'Extravagant Voyage du jeune et prodigieux T.S. Spivet
9 / Harry Potter et le Prince de Sang-Mêlé
10 / Chambre avec vue
11 / Le Discours d'un Roi
--------------------------------------------------------------------------------6/10-------
12 / Lone Ranger : Naissance d'un Héros
13 / Retour à Howards End
14 / Frankenstein
15 / La Planète des Singes
16 / Cendrillon
17 / Alice de l'autre côté du miroir ✔
18 / Les Misérables
--------------------------------------------------------------------------------5/10-------
19 / Enola Holmes
20 / Terminator Renaissance
21 / Alice au Pays des Merveilles
22 / Dark Shadows
--------------------------------------------------------------------------------4/10-------
23 / Ocean's 8

http://www.senscritique.com/top/Les_meilleurs_films_avec_Helena_Bonham_Carter/999412

6. Keira Knightley

Actrice, artiste musicale, autrice et productrice

Annotation :

Moyenne : 6,36/10
----------------------------------------------------------------------------------8/10-------
1 / Reviens-moi
2 / Everest ✔
3 / Star Wars : Épisode I - La Menace fantôme
4 / Pirates des Caraïbes : Le Secret du coffre maudit
5 / Pirates des Caraïbes : La Malédiction du Black Pearl
----------------------------------------------------------------------------------7/10-------
6 / Imitation Game
7 / Orgueil et Préjugés
8 / Official Secrets
9 / New York Melody
10 / Pirates des Caraïbes : Jusqu'au bout du monde
11 / Anna Karénine
----------------------------------------------------------------------------------6/10-------
12 / Love Actually
13 / Pirates des Caraïbes : La Vengeance de Salazar ✔
14 / Never Let Me Go
----------------------------------------------------------------------------------5/10-------
15 / Le Roi Arthur
16 / Joue-la comme Beckham
17 / A Dangerous Method
18 / Domino
19 / Girls Only
20 / Casse-Noisette et les Quatre Royaumes
21 / The Ryan Initiative
22 / Last Night

http://www.senscritique.com/top/Les_meilleurs_films_avec_Keira_Knightley/999406

7. Tilda Swinton

Actrice, autrice, réalisatrice, productrice et scénariste

Annotation :

Moyenne : 6,82/10
----------------------------------------------------------------------------------8/10-------
1 / Avengers : Endgame ✔
2 / L'Étrange Histoire de Benjamin Button ✔
3 / La Plage
4 / Okja ✔
5 / Moonrise Kingdom
6 / The Souvenir - Part II ✔
----------------------------------------------------------------------------------7/10-------
7 / The Grand Budapest Hotel
8 / Doctor Strange ✔
9 / Le Monde de Narnia : Chapitre 1
10 / Only Lovers Left Alive
11 / Burn After Reading
12 / Vanilla Sky
13 / Snowpiercer - Le Transperceneige
14 / Adaptation.
15 / The French Dispatch
16 / We need to talk about Kevin
----------------------------------------------------------------------------------6/10-------
17 / Suspiria
18 / The Souvenir - Part I ✔
-----------------------------------------------------------------------------------5/10-------
19 / Le Monde de Narnia : Chapitre 2
20 / Le Monde de Narnia : Chapitre 3 ✔
21 / Ave, César !
22 / The Dead Don't Die ✔

http://www.senscritique.com/top/Les_meilleurs_films_avec_Tilda_Swinton/1075071

8. Judi Dench

Actrice, artiste musicale et autrice

Annotation :

Moyenne : 6,2/10
----------------------------------------------------------------------------------9/10-------
1 / Casino Royale
2 / Skyfall ✔
----------------------------------------------------------------------------------8/10-------
3 / Hamlet
4 / GoldenEye
----------------------------------------------------------------------------------7/10-------
5 / Orgueil et Préjugés
6 / Chambre avec vue
7 / Belfast
8 / Indian Palace ✔
----------------------------------------------------------------------------------6/10-------
9 / Shakespeare in Love
10 / Pirates des Caraïbes : La Fontaine de Jouvence ✔
11 / Quantum of Solace
12 / Demain ne meurt jamais
13 / Le monde ne suffit pas
14 / Le Crime de l'Orient-Express
15 / Chocolat
----------------------------------------------------------------------------------5/10-------
16 / Miss Peregrine et les Enfants particuliers
17 / Les Chroniques de Riddick
----------------------------------------------------------------------------------4/10-------
18 / Meurs un autre jour
----------------------------------------------------------------------------------3/10-------
19 / Artemis Fowl
20 / Cats

https://www.senscritique.com/top/Les_meilleurs_films_avec_Judi_Dench/1686876

9. Kristen Stewart

Actrice, artiste musicale et réalisatrice

Annotation :

Moyenne : 6,1/10
----------------------------------------------------------------------------------8/10-------
1 / Into the Wild
----------------------------------------------------------------------------------7/10-------
2 / Panic Room
3 / Spencer
4 / Underwater
5 / Adventureland, job d'été à éviter
6 / Sur la route
7 / Café Society
8 / Un jour dans la vie de Billy Lynn
9 / The Guard
----------------------------------------------------------------------------------6/10-------
10 / Jumper
11 / Ma belle-famille, Noël et moi
12 / Twilight : Chapitre 1 - Fascination ✔
13 / Zathura, une aventure spatiale
----------------------------------------------------------------------------------5/10-------
14 / Blanche-Neige et le Chasseur ✔
15 / Twilight: Chapitre 5 - Révélation, 2e partie
16 / Twilight : Chapitre 4 - Révélation, 1ère partie
17 / Twilight : Chapitre 3 - Hésitation
18 / Twilight : Chapitre 2 - Tentation
19 / American Ultra
----------------------------------------------------------------------------------4/10-------
20 / Charlie's Angels

http://www.senscritique.com/top/Les_meilleurs_films_avec_Kristen_Stewart/999087

10. Emma Thompson

Actrice, autrice, réalisatrice, productrice et scénariste

Annotation :

Moyenne : 6,37/10
----------------------------------------------------------------------------------8/10-------
1 / Harry Potter et les Reliques de la Mort : 2ème partie ✔
2 / Harry Potter et le Prisonnier d'Azkaban
3 / Au nom du père
4 / Years and Years (Série)
----------------------------------------------------------------------------------7/10-------
5 / Beaucoup de bruit pour rien
6 / Les Vestiges du jour
7 / Good Morning England
8 / Cruella
9 / Men in Black 3
----------------------------------------------------------------------------------6/10-------
10 / Love Actually
11 / Retour à Howards End
12 / Une éducation
13 / La Belle et la Bête
14 / Dans l'ombre de Mary - La Promesse de Walt Disney
----------------------------------------------------------------------------------5/10-------
15 / Dead Again
16 / Men in Black : International
17 / À vif !
18 / Nanny McPhee
-----------------------------------------------------------------------------------4/10-------
19 / Raison et Sentiments

http://www.senscritique.com/top/Les_meilleurs_films_avec_Emma_Thompson/1232332

11. Frances McDormand

Actrice, artiste musicale et productrice

Annotation :

Moyenne : 6,95/10
----------------------------------------------------------------------------------8/10-------
1 / 3 Billboards, les panneaux de la vengeance ✔
2 / Fargo
3 / Arizona Junior
4 / Moonrise Kingdom
5 / Mississippi Burning
6 / Barton Fink
7 / Miller's Crossing
----------------------------------------------------------------------------------7/10-------
8 / Sang pour Sang ✔
9 / The French Dispatch
10 / Nomadland
11 / Burn After Reading
12 / The Barber, l'homme qui n'était pas là
13 / Presque célèbre
----------------------------------------------------------------------------------6/10-------
14 / Darkman
15 / Lone Star
16 / Wonder Boys
17 / Transformers 3 : La Face cachée de la Lune
----------------------------------------------------------------------------------5/10-------
18 / Ave, César !
19 / Macbeth

https://www.senscritique.com/top/Les_meilleurs_films_avec_Frances_Mc_Dormand/1605275

12. Kirsten Dunst

Actrice, artiste musicale, réalisatrice, productrice et scénariste

Annotation :

Moyenne : 6,42/10
---------------------------------------------------------------------------------10/10-------
1 / Eternal Sunshine of the Spotless Mind
----------------------------------------------------------------------------------8/10-------
2 / Entretien avec un Vampire
3 / Spider-Man 2
4 / Spider-Man
----------------------------------------------------------------------------------7/10-------
5 / The Power of Dog
6 / Jumanji
7 / Fargo : Saison 3 (Série)
8 / Spider-Man 3
9 / Fight for Your Rights Revisited
10 / Virgin Suicides
11 / Sur la route
12 / Les Figures de l'ombre
13 / Marie-Antoinette
14 / Les Quatre Filles du docteur March
----------------------------------------------------------------------------------6/10-------
15 / Légendes vivantes (caméo)
16 / Melancholia
17 / Small Soldiers
18 / Midnight Special
19 / Upside Down

https://www.senscritique.com/top/Les_meilleurs_films_avec_Kirsten_Dunst/999411

13. Sigourney Weaver

Actrice et productrice

Annotation :

Moyenne : 6,95/10
---------------------------------------------------------------------------------9/10------
1 / Avatar ✔
2 / Alien : Le Huitième passager
---------------------------------------------------------------------------------8/10------
3 / Aliens : Le Retour
4 / Annie Hall (caméo)
5 / Quelques minutes après minuit
---------------------------------------------------------------------------------7/10------
6 / S.O.S Fantômes
7 / Exodus : Gods and Kings
8 / La Cabane dans les bois
9 / Galaxy Quest
10 / Soyez sympas, rembobinez
11 / Alien 3
12 / Alien : La Résurrection
---------------------------------------------------------------------------------6/10------
13 / Gorilles dans la brume
14 / S.O.S. Fantômes - L'héritage (caméo) ✔
15 / S.O.S Fantômes 2
16 / 1492 : Christophe Colomb
17 / Chappie
18 / Le Village
---------------------------------------------------------------------------------5/10------
19 / Paul

http://www.senscritique.com/top/Les_meilleurs_films_avec_Sigourney_Weaver/999560

14. Emma Stone

Actrice et productrice

Annotation :

Moyenne : 6,56/10
---------------------------------------------------------------------------------10/10-------
1 / La La Land ✔
----------------------------------------------------------------------------------9/10-------
2 / Maniac (Série)
----------------------------------------------------------------------------------8/10-------
3 / Birdman
4 / La Couleur des sentiments
----------------------------------------------------------------------------------7/10-------
5 / La Favorite
6 / Battle of the Sexes
7 / Bienvenue à Zombieland
8 / SuperGrave
9 / Cruella
10 / Crazy, Stupid, Love
----------------------------------------------------------------------------------6/10-------
11 / Retour à Zombieland
12 / The Amazing Spider-Man : Le Destin d'un héros ✔
13 / The Amazing Spider-Man
14 / Easy Girl
15 / L'Homme irrationnel
16 / Gangster Squad
----------------------------------------------------------------------------------3/10-------
17 / My Movie Project
----------------------------------------------------------------------------------2/10-------
18 / Super Blonde

http://www.senscritique.com/top/Les_meilleurs_films_avec_Emma_Stone/999360

15. Julianne Moore

Actrice, autrice et productrice

Annotation :

Moyenne : 6,5/10
----------------------------------------------------------------------------------9/10-------
1 / Boogie Nights
----------------------------------------------------------------------------------8/10-------
2 / Le Monde perdu : Jurassic Park
3 / Magnolia
4 / Les Fils de l'Homme
5 / The Big Lebowski
----------------------------------------------------------------------------------7/10-------
6 / Hannibal
7 / Kingsman : Le Cercle d'or ✔
8 / Crazy Stupid Love
9 / Le Fugitif
----------------------------------------------------------------------------------6/10-------
10 / Don Jon
11 / Hunger Games : La Révolte, partie 2 ✔
12 / Hunger Games : La Révolte, partie 1 ✔
13 / Bienvenue à Suburbicon
14 / Blindness
----------------------------------------------------------------------------------5/10-------
15 / Évolution
16 / Darkside, les contes de la nuit noire
----------------------------------------------------------------------------------4/10-------
17 / La Femme à la fenêtre
18 / Carrie, la vengeance

http://www.senscritique.com/top/Les_meilleurs_films_avec_Julianne_Moore/999419

16. Laura Dern

Actrice et productrice

Annotation :

Moyenne : 6,67/10
----------------------------------------------------------------------------------9/10-------
1 / Jurassic Park ✔
----------------------------------------------------------------------------------8/10-------
2 / Big Little Lies (Série)
3 / Les Filles du Docteur March ✔
4 / Un monde parfait
----------------------------------------------------------------------------------7/10-------
5 / Blue Velvet
6 / Marriage Story
7 / Le Fondateur
8 / 99 Homes
9 / Fight for Your Right Revisited (court-métrage)
10 / The Master
----------------------------------------------------------------------------------6/10-------
11 / Star Wars : Les Derniers Jedi ✔
12 / Sailor et Lula
13 / Wild
14 / Downsizing
15 / Nos étoiles contraires
----------------------------------------------------------------------------------5/10-------
16 / Jurassic World - Le Monde d'après ✔
17 / Coeurs Perdus
18 / Mon beau-père et nous

https://www.senscritique.com/top/Les_meilleurs_films_avec_Laura_Dern/2287503

17. Nicole Kidman

Actrice, artiste musicale, autrice et productrice

Annotation :

Moyenne : 6,28/10
----------------------------------------------------------------------------------9/10-------
1 / The Northman ✔
2 / Big Little Lies (Série)
3 / Lion
----------------------------------------------------------------------------------7/10-------
4 / Eyes Wide Shut
5 / Prête à tout
6 / Retour à Cold Mountain
7 / Mise à mort du cerf sacré
8 / Stoker
----------------------------------------------------------------------------------6/10-------
9 / Moulin Rouge !
10 / Les Autres
11 / Scandale
12 / Paddington
13 / À la croisée des mondes : La Boussole d'or
----------------------------------------------------------------------------------5/10-------
14 / Jours de tonnerre
15 / Hollywood 1953
16 / Aquaman
17 / Australia
----------------------------------------------------------------------------------4/10-------
18 / Batman Forever

https://www.senscritique.com/top/Les_meilleurs_films_avec_Nicole_Kidman/2044231

18. Rachel McAdams

Actrice

Annotation :

Moyenne : 6,39/10
----------------------------------------------------------------------------------8/10-------
1 / Il était temps
2 / Sherlock Holmes : Jeu d'ombres
----------------------------------------------------------------------------------7/10-------
3 / Sherlock Holmes
4 / N'oublie jamais
5 / Doctor Strange ✔
6 / True Detective : Saison 2 (Série)
7 / La Rage au ventre
8 / Minuit à Paris
----------------------------------------------------------------------------------6/10-------
9 / Doctor Strange in the Multiverse of Madness ✔
10 / Serial Noceurs
11 / Spotlight
12 / Game Night
13 / Jeux de pouvoir
14 / Lolita malgré moi
----------------------------------------------------------------------------------5/10-------
15 / Passion
16 / Á la merveille
17 / Je te promets
18 / Every Thing will be Fine

http://www.senscritique.com/top/Les_meilleurs_films_avec_Rachel_Mc_Adams/1216463

19. Amy Adams

Actrice, artiste musicale et productrice

Annotation :

Moyenne : 6,47/10
----------------------------------------------------------------------------------9/10-------
1 / Her ✔
----------------------------------------------------------------------------------8/10-------
2 / Arrête-moi si tu peux
3 / Premier Contact ✔
----------------------------------------------------------------------------------7/10-------
4 / Nocturnal Animals
5 / Vice
6 / Man of Steel ✔
7 / Batman v Superman : L'Aube de la Justice
8 / The Master
9 / Sur la route
----------------------------------------------------------------------------------6/10-------
10 / Big Eyes
11 / Fighter
12 / Zack Snyder's Justice League
13 / American Bluff
----------------------------------------------------------------------------------5/10-------
14 / La Nuit au musée 2
15 / Il était une fois
16 / Les Muppets : Le Retour
----------------------------------------------------------------------------------4/10-------
17 / La Femme à la fenêtre

https://www.senscritique.com/top/Les_meilleurs_films_avec_Amy_Adams/1529423

20. Catherine Keener

Actrice et productrice

Annotation :

Moyenne : 6,71/10
----------------------------------------------------------------------------------8/10-------
1 / Into the Wild
2 / Get Out ✔
3 / Capitaine Phillips ✔
4 / Dans la peau de John Malkovich
----------------------------------------------------------------------------------7/10-------
5 / 8 mm
6 / An American Crime
7 / Adaptation.
8 / Hors d'atteinte
9 / Sicario La Guerre des cartels
10 / New York Melody
11 / Le Soliste
----------------------------------------------------------------------------------6/10-------
12 / Kidding (Série)
13 / Max et les Maximonstres
14 / Bad Grandpa
----------------------------------------------------------------------------------5/10-------
15 / Cyrus
16 / 40 ans, toujours puceau
17 / Percy Jackson : Le Voleur de foudre

21. Kate Winslet

Actrice, artiste musicale et productrice

Annotation :

Moyenne : 6,29/10
---------------------------------------------------------------------------------10/10-------
1 / Eternal Sunshine of the Spotless Mind
----------------------------------------------------------------------------------9/10-------
2 / Titanic
----------------------------------------------------------------------------------8/10-------
3 / La vie de David Gale
4 / Hamlet
5 / The Reader
----------------------------------------------------------------------------------7/10-------
6 / Steve Jobs
7 / Les Noces Rebelles
----------------------------------------------------------------------------------6/10-------
8 / Créatures Célestes
9 / Neverland
10 / Wonder Wheel
11 / The Holiday
----------------------------------------------------------------------------------5/10-------
12 / Triple 9
13 / Divergente
14 / Contagion
----------------------------------------------------------------------------------4/10-------
15 / Divergente 2 : L'insurrection ✔
16 / Raison et Sentiments
----------------------------------------------------------------------------------3/10-------
17 / My Movie Project

http://www.senscritique.com/top/Les_meilleurs_films_avec_Kate_Winslet/999656

22. Rachel Weisz

Actrice et productrice

Annotation :

Moyenne : 6,18/10
---------------------------------------------------------------------------------8/10-------
1 / Stalingrad ✔
----------------------------------------------------------------------------------7/10-------
2 / The Lobster
3 / The Constant Gardener
4 / Lovely Bones
5 / La Favorite
6 / Youth
7 / The Fountain
----------------------------------------------------------------------------------6/10-------
8 / La Momie
9 / Agora
10 / Une vie entre deux océans
11 / Le Procès du siècle
12 / Le Monde fantastique d'Oz
13 / Jason Bourne : L'Héritage
14 / Le Retour de la Momie
----------------------------------------------------------------------------------5/10-------
15 / Black Widow
16 / My Blueberry Nights
----------------------------------------------------------------------------------3/10-------
17 / Eragon

http://www.senscritique.com/top/Les_meilleurs_films_avec_Rachel_Weisz/1239265

23. Rosario Dawson

Actrice, artiste musicale, autrice et productrice

Annotation :

Moyenne : 6,59/10
----------------------------------------------------------------------------------8/10-------
1 / Dopesick (Série)
2 / Boulevard de la mort
3 / Daredevil (Série)
----------------------------------------------------------------------------------7/10-------
4 / Sin City
5 / Alexandre
6 / Sept Vies
7 / Jessica Jones (Série)
8 / Trance
9 / La 25ème Heure
----------------------------------------------------------------------------------6/10-------
10 / Sin City : J'ai tué pour elle
11 / Retour à Zombieland
12 / Unstoppable
13 / Clerks II
14 / Luke Cage (Série)
15 / Bienvenue dans la jungle
----------------------------------------------------------------------------------5/10-------
16 / Men in Black II
17 / Percy Jackson : Le Voleur de foudre

http://www.senscritique.com/top/Les_meilleurs_films_avec_Rosario_Dawson/1156037

24. Charlize Theron

Actrice et productrice

Annotation :

Moyenne : 6,19/10
----------------------------------------------------------------------------------9/10-------
1 / Mad Max : Fury Road ✔
----------------------------------------------------------------------------------8/10-------
2 / The Yards
3 / L'Associé du diable
----------------------------------------------------------------------------------7/10-------
4 / Monster
5 / La Route
----------------------------------------------------------------------------------6/10-------
6 / Prometheus ✔
7 / Doctor Strange in the Multiverse of Madness ✔
8 / Scandale
9 / Atomic Blonde
10 / Hancock
11 / Albert à l'Ouest
----------------------------------------------------------------------------------5/10-------
12 / Braquage à l'Italienne
13 / Blanche-Neige et le Chasseur ✔
14 / Le Chasseur et la Reine des glaces
15 / Fast and Furious 8
16 / Fast and Furious 9 ✔

https://www.senscritique.com/top/Les_meilleurs_films_avec_Charlize_Theron/1863917

25. Gwyneth Paltrow

Actrice, artiste musicale, autrice et productrice

Annotation :

Moyenne : 6,56/10
---------------------------------------------------------------------------------10/10-------
1 / Seven
---------------------------------------------------------------------------------8/10-------
2 / Avengers : Endgame ✔
3 / Avengers : Infinity War ✔
----------------------------------------------------------------------------------7/10-------
2 / Avengers : Endgame ✔
3 / Avengers : Infinity War ✔
4 / Iron Man
5 / Avengers ✔
6 / Le Talentueux Mr. Ripley
7 / Hook ou la revanche du capitaine Crochet
8 / La Famille Tenenbaum
----------------------------------------------------------------------------------6/10-------
9 / Two Lovers
10 / Shakespeare in Love
11 / Spider-Man : Homecoming
12 / Iron Man 3 ✔
13 / Double Mise
14 / L'Amour extra large
----------------------------------------------------------------------------------5/10-------
15 / Iron Man 2
16 / Contagion

http://www.senscritique.com/top/Les_meilleurs_films_avec_Gwyneth_Paltrow/999157

26. Lois Maxwell

Actrice

Annotation :

Moyenne : 6,38/10
----------------------------------------------------------------------------------8/10-------
1 / Lolita
----------------------------------------------------------------------------------7/10-------
2 / On ne vit que deux fois
3 / Goldfinger
4 / Opération Tonnerre
5 / James Bond Contre Dr. No
6 / Au service secret de sa majesté
7 / L'Homme au Pistolet d'or
----------------------------------------------------------------------------------6/10-------
8 / La Maison du Diable
9 / Rien que pour vos yeux
10 / L'Espion qui m'aimait
11 / Dangereusement vôtre
12 / Moonraker
13 / Les Diamants sont éternels
14 / Bons Baisers de Russie
----------------------------------------------------------------------------------5/10-------
15 / Octopussy
16 / Vivre et laisser mourir

27. Meryl Streep

Actrice et artiste musicale

Annotation :

Moyenne : 6,75/10
---------------------------------------------------------------------------------10/10-------
1 / Voyage au bout de l'enfer ✔
----------------------------------------------------------------------------------8/10-------
2 / Sur la route de Madison
3 / Big Little Lies (Série)
4 / Les Filles du Docteur March ✔
5 / Kramer contre Kramer
6 / La Mort vous va si bien
----------------------------------------------------------------------------------7/10-------
7 / Manhattan
8 / Pentagon Papers ✔
9 / Adaptation.
----------------------------------------------------------------------------------6/10-------
10 / Don't Look Up : Déni cosmique
11 / Out of Africa, souvenirs d'Afrique
12 / Mamma Mia! Here We Go Again
13 / Mamma Mia! le film
14 / Deux en un (caméo)
----------------------------------------------------------------------------------4/10-------
15 / Le Diable s'habille en Prada
----------------------------------------------------------------------------------4/10-------
16 / Into the Woods - Promenons-nous dans les bois

https://www.senscritique.com/top/Les_meilleurs_films_avec_Meryl_Streep/2303037

28. Angelina Jolie

Actrice, réalisatrice, productrice et scénariste

Annotation :

Moyenne : 5,8/10
----------------------------------------------------------------------------------7/10-------
1 / L'Échange
2 / Une vie volée
3 / Alexandre
4 / La Légende de Beowulf
----------------------------------------------------------------------------------6/10-------
5 / Les Éternels ✔
6 / Wanted : Choisis ton destin
7 / Raisons d'Etat
8 / Mr. & Mrs. Smith
----------------------------------------------------------------------------------5/10-------
9 / Lara Croft : Tomb Raider
10 / Maléfique
11 / Maléfique : Le Pouvoir du mal
12 / Lara Croft : Tomb Raider - Le Berceau de la vie
13 / Hackers
14 / 60 secondes chrono
15 / Salt

https://www.senscritique.com/top/Les_meilleurs_films_avec_Angelina_Jolie/1797610

29. Cameron Diaz

Actrice et autrice

Annotation :

Moyenne : 5,93/10
----------------------------------------------------------------------------------8/10-------
1 / Gangs of New York
----------------------------------------------------------------------------------7/10-------
2 / Dans la peau de John Malkovich
3 / Las Vegas Parano
4 / The Mask
5 / Vanilla Sky
6 / L'Enfer du dimanche
7 / Une vie moins ordinaire
----------------------------------------------------------------------------------6/10-------
8 / The Green Hornet ✔
9 / The Holiday
10 / Mary à tout prix
----------------------------------------------------------------------------------4/10-------
11 / Jackpot
12 / The Box
13 / Cartel
14 / Charlie et ses drôles de dames
15 / Charlie's Angels : Les Anges se déchaînent

http://www.senscritique.com/top/Les_meilleurs_films_avec_Cameron_Diaz/999124

30. Elizabeth Banks

Actrice, réalisatrice, productrice et scénariste

Annotation :

Moyenne : 6,13/10
----------------------------------------------------------------------------------9/10-------
1 / Arrête-moi si tu peux
----------------------------------------------------------------------------------8/10-------
2 / Spider-Man
----------------------------------------------------------------------------------7/10-------
3 / Hunger Games : L'Embrasement ✔
4 / Spider-Man 2
5 / Spider-Man 3
----------------------------------------------------------------------------------6/10-------
6 / Hunger Games : La Révolte, partie 2 ✔
7 / Hunger Games
8 / Hunger Games : La Révolte, partie 1 ✔
9 / Love & Mercy
10 / The Hit Girls
11 / Les Grands Frères
----------------------------------------------------------------------------------5/10-------
12 / Pitch Perfect 2
13 / 40 ans, toujours puceau
----------------------------------------------------------------------------------4/10-------
14 / Charlie's Angels
15 / Appelez-moi Dave

http://www.senscritique.com/top/Les_meilleurs_films_avec_Elizabeth_Banks/1259184